Black Keys - Waiting On Words Chords & Tabs

 

Waiting On Words Chords & Tabs

Black Keys Chords & Tabs

Version: 1 Type: Tab 0 ratings
1 star 2 stars 3 stars 4 stars 5 stars
comments

Waiting On Words Tab

   
-------------------------------------------------------------------------------
                             WAITING ON WORDS - Black Keys
-------------------------------------------------------------------------------
Tabbed by: tele.kom

Tuning: Standard


Intro/Pre-Verse

GTR 1
   D U D U D  U D U D  D D  D U D U D  U D U D  D D
e|-9-9-9-9-9--9-9-7-7--7-7--7-7-7-7-7--7-7-5-5--5-7/9--|
B|-7-7-7-7-7--7-7-7-7--7-7--5-5-5-5-5--5-5-5-5--5-5----|
G|-7-7-7-7-7--7-7-7-7--7-7--6-6-6-6-6--6-6-6-6--6-6----|
D|-9-9-9-9-9--9-9-9-9--9-9--7-7-7-7-7--7-7-7-7--7-7----|
A|-----------------------------------------------------|
E|-----------------------------------------------------| 2x

GTR 2
   D U D U D  U D U D  D D  D U D U D  U D U D  D U D
e|-2-2-2-2-2--2-2-0-0--0-0--0-0-0-0-0--0-0-0-0--0-0-0--|
B|-3-3-3-3-3--3-3-3-3--3-3--2-2-2-2-2--2-2-0-0--0-0-2--|
G|-4-4-4-4-4--4-4-4-4--4-4--2-2-2-2-2--2-2-2-2--2-2-2--|
D|-4-4-4-4-4--4-4-4-4--4-4--2-2-2-2-2--2-2-2-2--2-2-2--|
A|-2-2-2-2-2--2-2-2-2--2-2--0-0-0-0-0--0-0-0-0--0-0-0--| 2x
E|-----------------------------------------------------|

Verse 
(Guitar 2 strums chords above)

   Bm   A            Am   G      Bm   A    Am   G      Am   A
e|--------------------------------------------------------------------|
B|-7~---5~--5h7p5----5~---3~-----7~---5~---5~---3~-----5~---5~--5-----|
G|-7~---6~-----------5~---4~-----7~---6~---5~---4~-----5~---6~----6---|
D|-9~---7~--------7--7~---5~-----9~---7~---7~---5~-----7~---7~------7-|
A|--------------------------------------------------------------------|
E|--------------------------------------------------------------------|

Chorus
[ Tab from: http://www.guitartabs.cc/tabs/b/black_keys/waiting_on_words_tab.html ]
GTR 1
   D  U D  D  U D U  D  U  D  U D U
e|----------------------------------|
B|-7--7-7--5--5-5-5--9--9--7--7-7-7-|
G|-7--7-7--6--6-6-6--9--9--8--8-8-8-|
D|-9--9-9--7--7-7-7--9--9--9--9-9-9-|
A|----------------------------------|
E|----------------------------------|

   D  U D  D  U D U  D  U D  D  U D U D
e|-----------------------------------------|
B|-7--7-7--5--5-5-5--7--7-7--9--9-9-9-9----|
G|-7--7-7--6--6-6-6--7--7-7--9--9-9-9-9----|
D|-9--9-9--7--7-7-7--7--7-7--9--9-9-9-9----|
A|-----------------------------------------|
E|-----------------------------------------|


GTR 2
   D  U D  D  U  D U D  D  U D  D  U  D U D
e|-2--2-2--0--0--0-0-0----------------------|
B|-3--3-3--2--2--2-2-2--9--9-9--4--4--4-4-4-|
G|-4--4-4--2--2--2-2-2--9--9-9--4--4--4-4-4-|
D|-4--4-4--2--2--2-2-2--9--9-9--4--4--4-4-4-|
A|-2--2-2--0--0--0-0-0--7--7-7--2--2--2-2-2-|
E|------------------------------------------|

   D  U D  D  U  D U D  D  U D  D  U  D U D
e|-2--2-2--0--0--0-0-0----------------------|
B|-3--3-3--2--2--2-2-2--7--7-7--9--9--9-9-9-|
G|-4--4-4--2--2--2-2-2--7--7-7--9--9--9-9-9-|
D|-4--4-4--2--2--2-2-2--7--7-7--9--9--9-9-9-|
A|-2--2-2--0--0--0-0-0--5--5-5--7--7--7-7-7-|
E|------------------------------------------|

Outro

   D D D D D  D D  D D  D D D  D D D D D  D D  D D  D D D
e|-9-9-9-9-9--9-9--7-7--7-7-7--7-7-7-7-7--7-7--5-5--5-5-5---|
B|-7-7-7-7-7--7-7--7-7--7-7-7--5-5-5-5-5--5-5--5-5--5-5-5---|
G|-7-7-7-7-7--7-7--7-7--7-7-7--6-6-6-6-6--6-6--6-6--6-6-6---|
D|-9-9-9-9-9--9-9--9-9--9-9-9--7-7-7-7-7--7-7--7-7--7-7-7---|
A|----------------------------------------------------------|
E|----------------------------------------------------------| 2x

Back to pre-verse

Comments