Black Keys - Sinister Kid Chords & Tabs

 

Sinister Kid Chords & Tabs

Black Keys Chords & Tabs

Version: 2 Type: Bass Tab

Sinister Kid Bass Tab

   
-------------------------------------------------------------------------------
				Sinister Kid - The Black Keys
-------------------------------------------------------------------------------

Tabbed By : M. Holiday
e-mail: mmmholiday@gmail.com

Tuning: E-A-D-G

Intro
[ Tab from: http://www.guitartabs.cc/tabs/b/black_keys/sinister_kid_btab_ver_2.html ]
  (first time)
G|----------------9-9--7--5--||----------------9-9--7--5----|---------------9-9--7--5----||
D|--------7-7----------------||--------7-7---------------5--|--------7-7-----------------||
A|-------------7-------------||-------------7---------------|-------------7--------------||
E|-5-(5)---------------------||-3h5-5-----------------------|-3h5-5----------------------||

Verse

  (first time)
G|-------------------|--------------|
D|-------------------|--------------|
A|-------------------|--------------|
E|-5-5-5-------------|-3h5-5--------|


There are a few fills, mostly muting notes and changing when the high G (the "5" on the 
D string) is played.
Play it with swagger! Cheers.