Black Keys - She Said She Said Chords & Tabs

 

She Said She Said Chords & Tabs

Black Keys Chords & Tabs

Version: 1 Type: Tab 0 ratings
1 star 2 stars 3 stars 4 stars 5 stars
comments

She Said She Said Tab

   
Hey whats up everybody please bare with for this is my first tab Ive ever posted hope you like it enjoy.


e-----------------------------|
B-----------------------------|
G----------6-h-7--6-h-7----9--|
D--7-h-9----------------------|
A-----------------------------|
E-----------------------------|

e----5---------------------------|
B----5------------------8--------|
G----6---5-6-7--7---7/9---9/7--5-|
D----7---5-6-7--7----------------|
A----7---3-4-5--5----------------|
E--5-----------------------------|

e---5-------------------------------|
B---5------------/10-10-10p8--------|
G---6---5-6-7----------------9--7h9-|
D---7---5-6-7-----------------------|
A---7---3-4-5-----------------------|
E--5--------------------------------|
[ Tab from: http://www.guitartabs.cc/tabs/b/black_keys/she_said_she_said_tab.html ]
e---5----------------------------|
B---5-------------------8--------|
G---6---5-6-7---7---7/9---7/5----|
D---7---5-6-7---7-------------7--|
A---7---3-4-5---5----------------|
E--5-----------------------------|

e---5-5--3--------5--|
B---5-5--3--------5--|
G---6-6--4---7-7--6--|       2x
D---7-7--5---7-7--7--|
A---7-7--5---5-5--7--|
E---5-5--3--------5--|

e---7/8\7--5-5/7----------------|
B----------------8--10p8---8h10-|
G------------------------9------|         The lead part
D-------------------------------|
A-------------------------------|
E-------------------------------|

Now just repeat the chords A  C  Csharp and D

Then when hey says "making me feel like" play A  G  D

Heres the part in the middle

play A  D  A  D  G  A  E   the when he says "everything was right" play

A  D  A  D  then back to start

Hope you like if you do and u want some other tabs just email me and tell me what song 
ill tab it out.

later   rock on WSP
joshbarewsp@yahoo.com
Comments