Black Keys - Everlasting Light Chords & Tabs

 

Everlasting Light Chords & Tabs

Black Keys Chords & Tabs

Version: 1 Type: Chords 0 ratings
1 star 2 stars 3 stars 4 stars 5 stars
comments

Everlasting Light Chords

   
-------------------------------------------------------------------------------
			     Everlasting Light - Black Keys
-------------------------------------------------------------------------------
Tabbed by: Jeff
Email:


groove
  E                             C#m            E  

e|--------------------------------------------------------------------------|
B|--------------------------------------------------------------------------|
G|--------------------------------------------------------------------------|
D|--------------------12-----12----------------------------------12-----12--|
A|--------------------------------------------------------------------------|
E|-12-12-12-12-12-12-----12------9-9-9-9-9-9---12-12-12-12-12-12-----12-----|

e|-------------------------------|
B|-------------------------------|
G|-------------------------------|   repeat
D|--------------------12-----12--|
A|-------------------------------|
E|-12-12-12-12-12-12-----12------|
[ Tab from: http://www.guitartabs.cc/tabs/b/black_keys/everlasting_light_crd.html ]
E              C#m         E
Let me be your everlasting light
             C#m      E
The sun when there is none
I'm a Shepard for you
         C#m
And I'll guide you through
       E       C#m         E      E/F#
Let me be your everlasting light


       E       C#m         E
Let me be your everlasting light
              C#m     E
I'll hold and never scold
In me you can confide
     C#m
When no ones by your side
  E            C#m         E
Let me be your everlasting light


F#m      E
Oh baby, cant you see?
F#m              E
I'm shining just for you
F#m           E
Loneliness is over
A    A/G#     F#m
Dark days are through
Theyre through

Let me be your everlasting light
A train going away from pain
Love is the coal
That makes this train roll
Let me be your everlasting light

Let me be your everlasting light

Let me be your everlasting light

Be your everlasting light




************************************

| /   slide up
| \   slide down
| h   hammer-on
| p   pull-off
| ~   vibrato
| +   harmonic
| x   Mute note
| b   Bend
| pb  Pre-bend
| br  Bend release
| pbr Pre-bend release
| brb Bend release bend

************************************
Comments