Black Keys - Everlasting Light Chords & Tabs

 

Everlasting Light Chords & Tabs

Black Keys Chords & Tabs

Version: 1 Type: Bass Tab 0 ratings
1 star 2 stars 3 stars 4 stars 5 stars
comments

Everlasting Light Bass Tab

tabbed by Muse-ician

G ||------------------------------6--6------------------------------------||
D ||o------------2--2------------------------------2--2-------------2--2-o||
A ||o7-7-7-7-7-7--7---4-4-4-4-4-4--4---7-7-7-7-7-7--7---7-7-7-7-7-7--7---o||  
E ||----------------------------------------------------------------------||

G ||---------------------------------------------------|    |
D ||o----------------------------2--2-------------2--2-|    |
A ||o7-7-7-7~4-4-4-4~7-7-7-7-7-7--7---7-7-7-7-7-7--7---| x2 |
E ||---------------------------------------------------|    |

G |------------------------------------------------------------------|     ||
D |--------------------------------------------2--2-------------2--2-|    o||
A |7-7-7-7-7-7-7-7~4-4-4-4-4-4-4-4~7-7-7-7-7-7--7---7-7-7-7-7-7--7---| x2 o||
E |------------------------------------------------------------------|     ||

G |--------------------------------------------------------------------|
D |------------4--4-------------2--2-------------4--4-------------2--2-|
A |9-9-9-9-9-9--9---7-7-7-7-7-7--7---9-9-9-9-9-9--9---7-7-7-7-7-7--7---|
E |--------------------------------------------------------------------|

G |----------------------------------|
D |------------4--4-------------2--2-|
A |9-9-9-9-9-9--9---7-7-7-7-7-7--7---|
E |----------------------------------|

[ Tab from: http://www.guitartabs.cc/tabs/b/black_keys/everlasting_light_btab.html ]
   Dark days are through                     They're
G |-----------------------------------------------|
D |-----6--------4--------------4------------6----|
A |0----------------------------------------------|
E |-----------------------------------------------|

     Through
G ||------------------------------------||
D ||o------------2--2-------------2--2-o||
A ||o7-7-7-7-7-7--7---7-7-7-7-7-7--7---o||
E ||------------------------------------||

G ||----------------------------------------------------||
D ||o----------------------------2--2-------------2--2-o||
A ||o7-7-7-7~4-4-4-4~7-7-7-7-7-7--7---7-7-7-7-7-7--7---o||
E ||----------------------------------------------------||

G |-------------------------------------------------||-------------------||
D |-------------------------------------------------||o------------2--2-o||
A |-7-7-7-7-7-7-7-7~4-4-4-4-4-4-4-4~7-7-7-7~4-4-4-4~||o7-7-7-7-7-7--7---o||
E |-------------------------------------------------||-------------------||
 
G |-----------------------------6--6-----------------------------------|
D |------------2--2------------------------------2--2-------------2--2-|
A |7-7-7-7-7-7--7---4-4-4-4-4-4--4---7-7-7-7-7-7--7---7-7-7-7-7-7--7---|
E |--------------------------------------------------------------------|

G |--------------------------------------------------|
D |----------------------------2--2-------------2--2-|
A |7-7-7-7~4-4-4-4~7-7-7-7-7-7--7---7-7-7-7-7-7--7---|
E |--------------------------------------------------|

G |-----------------|
D |------------2--2-|
A |7-7-7-7-7-7--7---| x13 fade out
E |-----------------|
Comments