Black Keys - Dead And Gone Chords & Tabs

 

Dead And Gone Chords & Tabs

Black Keys Chords & Tabs

Version: 1 Type: Bass Tab 0 ratings
1 star 2 stars 3 stars 4 stars 5 stars
comments

Dead And Gone Bass Tab

   
DEAD AND GONE by The Black Keys

Tabbed By : ninoshkavd

Tuning: Standard (EADG)

*comes in after drums*

G|-------------4----|
D|-6-6-46-46-6---64-|  
A|------------------|
E|------------------| x4

(0:16)

G|-------------4----------------------------------------------------|
D|-6-6-46-46-6---64-------------4-------------------------------4---|
A|------------------6-6-46-46-6---644-4-24-24-4-24456-6-46-46-6--6--|
E|------------------------------------------------------------------| x2

G|-------------4----|
D|-6-6-46-46-6---64-|  
A|------------------|
E|------------------|

Verse:

G|-------------4----------------------------------------------------|
D|-6-6-46-46-6---64-------------4-------------------------------4---|
A|------------------6-6-46-46-6---644-4-24-24-4-24456-6-46-46-6--6--|
E|------------------------------------------------------------------| x2

Chorus:

G|---------------------------------------------------------------------------|
D|-6-6-6-6-6-6-64-64--------------4------------------------------------456-6-|
A|-------------------6-6-6-6-6-6-6-654-4-4-4-424-4-4-4-4-6-6-6-6-6-6-64------|
E|---------------------------------------------------------------------------|

G|---------------------------------------------------------------|
D|-6-6-6-6-6-64---------------4------------------------------456-|
A|-------------6-6-6-6-6-6-646-4-4-4-4-4-4-4-456-6-6-6-6-6-64----|
E|---------------------------------------------------------------|

(1:40)
[ Tab from: http://www.guitartabs.cc/tabs/b/black_keys/dead_and_gone_btab.html ]
G|-------------4----------------------------------------------------|
D|-6-6-46-46-6---64-------------4-------------------------------4---|
A|------------------6-6-46-46-6---644-4-24-24-4-24456-6-46-46-6--6--|
E|------------------------------------------------------------------|

G|-------------4-----------------|
D|-6-6-46-46-6---64-6-6-46-46-6--| 
A|-------------------------------|
E|-------------------------------|

Verse:

G|-------------4----------------------------------------------------|
D|-6-6-46-46-6---64-------------4-------------------------------4---|
A|------------------6-6-46-46-6---644-4-24-24-4-24456-6-46-46-6--6--|
E|------------------------------------------------------------------| x2

Chorus:

G|---------------------------------------------------------------------------|
D|-6-6-6-6-6-6-64-64--------------4------------------------------------456-6-|
A|-------------------6-6-6-6-6-6-6-654-4-4-4-424-4-4-4-4-6-6-6-6-6-6-64------|
E|---------------------------------------------------------------------------|

G|---------------------------------------------------------------|
D|-6-6-6-6-6-64---------------4------------------------------456-|
A|-------------6-6-6-6-6-6-646-4-4-4-4-4-4-4-456-6-6-6-6-6-64----|
E|---------------------------------------------------------------|

(2:53)

G|-----------------------------------|
D|-6-6-6-6-6-6-6464-6-6-6-6-6-6-6464-|
A|-----------------------------------|
E|-----------------------------------|

G|:-------------4----------------------------------------------------:|
D|:-6-6-46-46-6---64-------------4-------------------------------4---:|
A|:------------------6-6-46-46-6---644-4-24-24-4-24456-6-46-46-6--6--:|
E|--------------------------------------------------------------------| repeat until end.
Comments