Black Keys - Aeroplane Blues Chords & Tabs


Aeroplane Blues Chords & Tabs

Black Keys Chords & Tabs

Version: 1 Type: Tab 0 ratings
1 star 2 stars 3 stars 4 stars 5 stars

Aeroplane Blues Tab

This is my first tab ever. Please give me some information if something is wrong or
something could be done better...

Riff A
E  |--------------------------|Chorus
B  |--------------------------|
G  |---------------------5----|
D  |-7-7-5-7-7-5-7-7-5-7-5----|
A  |-7-7-5-7-7-5-7-7-5-7-3----|
E  |-5-5-3-5-5-3-5-5-3-5------|

Riff B
[ Tab from: ]
E  |--------------------------|palm muted
B  |--------------------------|
G  |--------------------------|
D  |--------------------------|
A  |---------------------3----|
E  |-5-5-3-5-5-3-5-5-3-5------|

Riff C

E  |---------|Bridge
B  |---------|
G  |---------|
D  |---------|
A  |---------|
E  |-5-3-2-3-|

Riff A 2x
Riff B 4x
Riff C 1x
Riff A 2x
Riff B 4x
Riff A 4x
Riff B 4x but sometimes different from the original.
Riff C until the song is over... 

you can do the solo on your own. improve yourself. I play it different every time.
that`s why it`s a solo! ^^

If you got any questions write an e-mail to:
And sorry for my bad english!