Black Keys - 10 Am Automatic Chords & Tabs

 

10 Am Automatic Chords & Tabs

Black Keys Chords & Tabs

Version: 2 Type: Tab 0 ratings
1 star 2 stars 3 stars 4 stars 5 stars
comments

10 Am Automatic Tab

   
-------------------------------------------------------------------------------
			     10 Am Automatic - Black Keys
-------------------------------------------------------------------------------
Tabbed by: Tom Porter
Email:tomporter666@hotmail.com

Tuning: Standard EADGBE

Intro

	  Fill
e|------|----- |------------||
B|------|----- |--1-1--1-1--||
G|4-4-4-|----- |--2-2--0-0--|| x 4 on 3rd time play Fill A
D|5-5-5-|----- |--3-3--2-2--||	   on 4th time play Fill B 
A|5-5-5-|----- |--3-3--3-3--||
E|3-3-3-|----- |------------||

Fill A		Fill B
e|-------|	e|-------|
B|-------|	B|-------|
G|4b5~~--|	G|-/10/12|
D|-------|	D|-/10/12|
A|-------|	A|-------|
E|-------|	E|-------|


Verse
	 
	  Fill
e|------|----- |------------||
B|------|----- |--1-1--1-1--||
G|4-4-4-|----- |--2-2--0-0--|| x 8, on 4th time play Fill A
D|5-5-5-|x-x-x |--3-3--2-2--||	 
A|5-5-5-|x-x-x |--3-3--3-3--||
E|3-3-3-|x-x-x |------------||


Chorus

e|-------------------------------------|
B|-------------------------------------|
G|-------------------------------------|
D|-------------------------------------| x 3
A|-----xx--1-33-xx-1-33-1-33------xx---|
E|1-33-xx-------xx-----------1-33-xx---|

Fill A

Preverse
[ Tab from: http://www.guitartabs.cc/tabs/b/black_keys/10_am_automatic_tab_ver_2.html ]
	  Fill
e|------|----- |------------||
B|------|----- |--1-1--1-1--||
G|4-4-4-|----- |--2-2--0-0--|| x 4 Play Fill A on 1st,2nd & 4th timethrough
D|5-5-5-|x-x-x |--3-3--2-2--||	   Play Fill B on 3rd time through
A|5-5-5-|x-x-x |--3-3--3-3--||
E|3-3-3-|x-x-x |------------||


Verse

Chorus
				
	Fill2			     Fill1	
e|-----|---|------------------------|----|
B|-----|---|------------------------|----|
G|-----|---|------------------------|----|x 3 Play Fill C in fill1 1st time around
D|-----|---|------------------------|----|    Play Fill D in fill2 2nd time around
A|-----|xx-|-1-33-xx-1-33-1-33------|xx--|
E|1-33-|xx-|------xx-----------1-33-|xx--|

Fill B		Fill D
e|-------|	e|-------|
B|-------|	B|-------|
G|4b6r4--|	G|5b7r5-3|
D|-------|	D|-------|
A|-------|	A|-------|
E|-------|	E|-------|

Fill A

Solo

e|------------------------------------------6-8-8b9r8-6---6----6-------------|
B|--------------------------------6~~---6-8-------------8--8-6---8---6-8-----|
G|-/7~~-5---5-7-5--------/5--/5-7----------------------------------4-5-7-----|
D|--------8-------8-5~~------------------------------------------------------|
A|---------------------------------------------------------------------------|
E|---------------------------------------------------------------------------|

Don't know the last part of solo

You figure it out!


| /  slide up
| \  slide down
| h  hammer-on
| p  pull-off
| ~  vibrato
| +  harmonic
| x  Mute note
===============================================================================
Comments