Black Keys - 10 Am Automatic Chords & Tabs

 

10 Am Automatic Chords & Tabs

Black Keys Chords & Tabs

Version: 1 Type: Tab 0 ratings
1 star 2 stars 3 stars 4 stars 5 stars
comments

10 Am Automatic Tab

   
Intro/Verse
   

Intro (x4)

   G         F      C
|--x-x-x-----x-x-x----------|
|--3-3-3-----1-1-1--1--1----|
|--4-4-4-----2-2-2--0--0----|
|--5-5-5-----3-3-3--2--2----|
|--5-5-5-----3-3-3--3--3----|
|--x-x-x-----x-x-x--x--x----|

Verse
[ Tab from: http://www.guitartabs.cc/tabs/b/black_keys/10_am_automatic_tab.html ]
G                   F C
 What about the night 
              G
Makes you change...


Chorus

|--------------------------------------------|
|--------------------------------------------|
|--------------------------------------------|
|--------------------------------------------|
|---------1-3-3-----1-3-3-1-3-3--------------|
|-1-3-3-------------------------1-33---------|

You got pains...

That's it, pretty simple. You're on your own for the solo.
Comments