Black Frank - Whatever Happened To Pong Chords & Tabs

 

Whatever Happened To Pong Chords & Tabs

Black Frank Chords & Tabs

Version: 1 Type: Tab 0 ratings
1 star 2 stars 3 stars 4 stars 5 stars
comments

Whatever Happened To Pong Tab

   
#----------------------------------PLEASE NOTE---------------------------------#
#This file is the author's own work and represents their interpretation of the #
#song. You may only use this file for private study, scholarship, or research. #
#------------------------------------------------------------------------------#
Whatever Happened To Pong - Frank Black

Transcribed by Adam Farmer 
intro transcribed by Jere Klami 

Intro :

        A             E             A                 E
7-6-4-0-2---0---755220------7-6-4-0-2---0---------------
5-5-5-5-1---1---------------5-5-5-5-1---1---32----------
--------------------------------------------------------
--------------------------------------------------------
--------------------------------------------------------
----------------------03-0------------------------03-0--
[ Tab from: http://www.guitartabs.cc/tabs/b/black_frank/whatever_happened_to_pong_tab.html ]
            A                  E       A       B       A
7-6-4-0-3-6-5--------------------------------------------------
5-5-5-5-1-1---------3------------------2--22---4--44---2--22---
-------------------------------1--11---2--22---4--44---2--22---
-------------------------------2--22---2--22---4--44---2--22---
-------------------------------2--22---------------------------
-------------------------03-03-0-------------------------------


That little zippy part goes :
        
       D6 D6   C6  D6  C6
--------7--7----5---7---5------------
--------7--7----5---7---5------------
--------7--7----5---7---5------------
-------------------------------------
-------------------------------------


Intro

D6  D6  C6  D6  C6

Em  Fm  F#m  Gm   x3

D6  D6  C6  D6  C6

Em  Fm  F#m  Gm   x2
Comments