Black Frank - Man Of Steel Chords & Tabs

 

Man Of Steel Chords & Tabs

Black Frank Chords & Tabs

Version: 1 Type: Tab 0 ratings
1 star 2 stars 3 stars 4 stars 5 stars
comments

Man Of Steel Tab

   
Artist: Frank Black
Song: Man of Steel

I have only tabbed here the different riffs at the beginning of the
song. I didn't get a chance to work on the verse or chorus yet but
I figured I'd submit what I got so far. I broke each riff up into a
separate part to make things simpler. Any questions or comments can
be sent to bborred@hotmail.com


PART A:
|-----------0-|
|-----------0-|
|-0-2-3-2-0-0-|
|-----------2-|
|-----------2-|
|-----------0-|

PART B:
|-----------0-|
|-----------1-|
|-0-2-3-2-0-2-|
|-----------2-|
|-----------0-|
|-----------0-|
[ Tab from: http://www.guitartabs.cc/tabs/b/black_frank/man_of_steel_tab.html ]
PART C:
|-------------------|
|-------------------|
|-0-2-3-2-0---------|
|-----------5--8--6-|
|-----------5--8--6-|
|-----------3--6--4-|

PART D:
|---------------------------------------|
|---------------------------------------|
|-4-4-5-4--7-7-9-7-4/5--5-5-7-9---------|
|-------------------------------6-6-6-5-|
|-------------------------------6-6-6-5-|
|-------------------------------4-4-4-3-|

PART E:
|----15----14-12-------12----------|
|-12----12-------12-13----------13-|
|----------------------------12----|
|-------------------------12-------|
|----------------------------------|
|----------------------------------|


PART A x 1
PART B x 1
PART A x 3
PART B x 1
PART A x 2
PART C x 1
PART D x 1
PART E x 1
Comments