Black Frank - Czar And Other Riffs Chords & Tabs

 

Czar And Other Riffs Chords & Tabs

Black Frank Chords & Tabs

Version: 1 Type: Tab 0 ratings
1 star 2 stars 3 stars 4 stars 5 stars
comments

Czar And Other Riffs Tab

   
#----------------------------------PLEASE NOTE---------------------------------#
#This file is the author's own work and represents their interpretation of the #
#song. You may only use this file for private study, scholarship, or research. #
#------------------------------------------------------------------------------#
From: ejs@world.std.com (Eric J Schwarzenbach)

I found this tab of Czar at a Nevada mirror site and made a few corrections.
These corrections are:

1) Replaced the open E chord at the end of the Verse Riff with a higher bar
   chord (the riff definitely rises at the end).
2) Modified the A E F# chord progression that occurs at the end of each verse
   "Band . . ." "Thanks . . ." "No . . ." with A G# F# (the progression definitely
   descends).
3) Added the florish in the middle of the chorus (at the end of the line
   "who has sung his bars") E F F# (I think there's a musical name for this florish
   but I can't think of it).

I'd be happy to hear any feedback.

             --ejs@world.std.com (Eric Schwarzenbach)
-------------------------------------------------------------
Original tab from: skrul@csugrad.cs.vt.edu (Steve Krulewitz)

Czar (Frank Black)
~~~

The lyrics are from memory, please correct!

The Chords: 

 A    F#   G#  C#m  
-5----2----4----4--
-5----2----4----5--
-6----3----5----6--
-7----4----6----6--
-7----4----6----4--
-5----2----4----4--

The Verse Riff:
           
 B       Em     C#      E
-------------------------------
-------------------------------
-4---4---0-1-2--6--6-6--9--9-9-
-4---4---2-2-2--6--6-6--9--9-9- repeat...
-2---2---2-2-2--4--4-4--7--7-7-
---------0-0-0-----------------
 ^   ^   ^   ^   ^   ^   ^   ^

You have to listen closely to the recording to hear the
Em/E/Esus thingy he does after the B...



*****************************************************************************************************************

*****************************************************************************************************************


From: skrul@csugrad.cs.vt.edu (Steve Krulewitz)

Here is my try at Freedom Rock... any corrections are very welcome!!

Freedom Rock
~~~~~~~~~~~~
Written by: Frank Black
From the album "Teenager of the Year"

Intro:
B                             D       E      C    F#   F   

Riff:
   B               G               D               F#
E -----2-----2-----3-----3-----3-------2-----2---2-----0-----0---0-
B -0-0---0-0---0-0---0-0---0-0---0-----------------3-3---3-3---3---
G -----------------------------------------------------------------
D ---------------------------------0-0---0-0---0-------------------

[Intro x 4 - sometimes pick the G, B, & E strings on the F# & F ]


***************************************************************************************************************************

***************************************************************************************************************************


From: schnitzi@longwood.cs.ucf.edu (Mark Schnitzius)

----

I Heard Ramona Sing
Frank Black
Transcribed by Mark Schnitzius (schnitzi@east.isx.com)


In case you hadn't guessed, this song is a Ramones tribute song.
Frank continues to impress with the bizarre chord progressions.


----------------------

[Intro riff (I think):]

[ Tab from: http://www.guitartabs.cc/tabs/b/black_frank/czar_and_other_riffs_tab.html ]
-------------------------
-------------------------
-7-6-7-4-5-4-5-2-2-2-2-2-
-7-7-7-5-5-5-5-3-3-3-3-3-
-------------------------
------------------------- [repeats]
D  C  F
D  C  F
D  C  F
D  C  F
G  C  Am  Cm
F  G  C  Cm  
A  E
G  C  E
-------------------
-------------------
-------------------
-3-3-3-2-0---------
-----------3-------
-------------------
F  G  C  Am  Cm
F  G  C  Cm  A



-----------------------
--3r2-3r2-------3-2----
----------2-2-0-----0--
-----------------------
-----------------------
-----------------------[repeats]
D  C  F
D  C  F


*************************************************************************************************************************************

*************************************************************************************************************************************


From: schnitzi@longwood.cs.ucf.edu (Mark Schnitzius)

Here's a revised version of FB's Los Angeles -- the
intro was right before, but the rest was way off.
Please don't ask me what I was smoking, or where you
can get some.


----
FRANK BLACK
'Los Angeles'
Transcribed by Mark Schnitzius


Here are the bar chords for the middle
part:

  A     C#   D    F
--10----4----5----8-------------
--12----6----7----10------------
--12----6----7----10------------
--12----6----7----10------------
--10----4----5----8-------------
--------------------------------]


*************************************************************
mark schnitzius    isx corporation      schnitzi@east.isx.com
 me

************************************************************************************************************************************************

************************************************************************************************************************************************


From: schnitzi@longwood.cs.ucf.edu (Mark Schnitzius)
Subject: Re: REQ:Frank Black - Perry the WInd High,Low

nrry the Wind High, Low
FRANK BLACK

This might be easier to play if you tune down a step.  I think
that's how it's done on the record.  The closing progression
was a bitch to figure, but I think I have it.  Anyone have any
idea who Desmond Dekker is?

Opening riff:

D             D#   D            D#  G            G#
----------------------------------------------------
-------------------------------------------1--------
--------0-----------------0---------0--2-3---3-2-3--
-0--2-3---3-2-3----0--2-3---3-2-3-------------------
----------------------------------------------------
----------------------------------------------------

 D            D#
------------------
------------------
--------0---------
-0--2-3---3-2-3---
------------------
------------------




***********************************************************************
mark schnitzius          isx corporation          schnitzi@east.isx.com
 home page: "http:://east.isx.com/~schnitzi/schnitzi.html"


*****************************************************************************************************************************************************

*****************************************************************************************************************************************************



Comments