Black Flag - Thirsty And Miserable Chords & Tabs

 

Thirsty And Miserable Chords & Tabs

Black Flag Chords & Tabs

Version: 1 Type: Tab 0 ratings
1 star 2 stars 3 stars 4 stars 5 stars
comments

Thirsty And Miserable Tab

song: thirsty and miserable
by: black flag

/ means slide
v means vibrate
~ means ring

intro
E----------------------------------------------------------------|
B----------------------------------------------------------------|
G----------------------------------------------------------3/7v--|
D----------------------------------------------------------------|
A--5-777777-5-777777-5-77-5-77-5-777777-5-777777-5-777777--------|
E--3-555555-3-555555-3-55-3-55-3-555555-3-555555-3-555555--------|

verse
E----------------------------------------|
B----------------------------------------|
G----------------------------------------|2x
D-----------5-------------5--------------|
A--5-777777-3-777777-5-77-3-77-5-777777--|
E--3-555555---555555-3-55---55-3-555555--|
[ Tab from: http://www.guitartabs.cc/tabs/b/black_flag/thirsty_and_miserable_tab.html ]
E--------------------------------------------------------------|
B--------------------------------------------------------------|
G--------------------------------------------------------------|1x
D-----------------8---------------------8----------------------|
A--8-101010101010-6-101010101010-8-1010-6-1010-8-101010101010--|
E--6--8-8-8-8-8-8----8-8-8-8-8-8-6--8-8----8-8-6--8-8-8-8-8-8--|

E-----------------------------------------|
B-----------------------------------------|
G-----------------------------------------|1x
D-----------5-------------5---------------|
A--5-777777-3-777777-5-77-3-77-5-7777777--|
E--3-555555---555555-3-55---55-3-5555555--|

chorus
E-------------------------------------------------|
B-------------------------------------------------|
G-------------------------------------------------|
D-------------------------------------------------|
A--2~~~~~--77-5-2~~~~~--77-5-2~~~~~--77-5-2~~~~~--|
E--0~~~~~--55-3-0~~~~~--55-3-0~~~~~--55-3-0~~~~~--|
Comments