Black Flag - Slip It In Chords & Tabs

 

Slip It In Chords & Tabs

Black Flag Chords & Tabs

Version: 1 Type: Tab 0 ratings
1 star 2 stars 3 stars 4 stars 5 stars
comments

Slip It In Tab

   
Submitted By: Newfie91

Band: Black Flag
Song: Slip It In
Album: Slip It In

Intro

E|---0----0--------0----0-------|X4
B|-----3----3--------3----3-----|
G|-1----------1-------------1---|
D|--------------0-------------0-|
A|------------------------------|
E|------------------------------|

E|---0--12-15b17r15-12-|
B|---0--12-------------|
G|---------------------|
D|-2-------------------|
A|-2-------------------|
E|-0-------------------|

E|-13-12-14-13-14-13-15-14-15-14-16-15-16-15-17-16-17-16-18-17-16-15-17-16-|
B|-------------------------------------------------------------------------|
G|-------------------------------------------------------------------------|
D|-------------------------------------------------------------------------|
A|-------------------------------------------------------------------------|
E|-------------------------------------------------------------------------|

E|-15-14-16-15-14-13-15-14-13-12-14-13-12-11-13-12-11-10-12-11-10-9-11-10-|
B|------------------------------------------------------------------------|
G|------------------------------------------------------------------------|
D|------------------------------------------------------------------------|
A|------------------------------------------------------------------------|
E|------------------------------------------------------------------------|

E|-9-8-10-9-8-7-9-8-7-6-8-7-6-5-4-6-5-4-3-5-4-3-5-4-|
B|--------------------------------------------------|
G|--------------------------------------------------|
D|--------------------------------------------------|
A|--------------------------------------------------|
E|--------------------------------------------------|

E|-3-2-4-3-2-1-3-2-1-|
B|-------------------|
G|-------------------|
D|-------------------|
A|-------------------|
E|-------------------|

E|-----------------------------------------------------------------------------------|
B|-----------------------------------------------------------------------------------|
G|----------------------12--------------------------11-------------------------10----|
D|--------------------12--------------------------11-------------------------10------|
A|-2-2--2-2-2--2-2--10-----10\-2-2--2-2-2--2-2--9------9\-2-2--2-2-2--2-2--8------9\-|
E|-0-0--0-0-0--0-0-------------0-0--0-0-0--0-0------------0-0--0-0-0--0-0------------|

E|----------------------------|X2
B|----------------------------|
G|----------------------10----|
D|--------------------10------|
A|-2-2--2-2-2--2-2--8------9\-|
E|-0-0--0-0-0--0-0------------|
[ Tab from: http://www.guitartabs.cc/tabs/b/black_flag/slip_it_in_tab.html ]
E|------------------------------|X2
B|------------------------------|
G|------------------------------|
D|-5-5-5--5-5-5--5--5-5-5-----2-|
A|-5-5-5--5-5-5--5--5-5-5-3-3-2-|
E|-3-3-3--3-3-3--3--3-3-3-----0-|
                           

Verse

E|---------------------------|X4
B|---------------------------|
G|----------------------9----|
D|--------------------9------|
A|-2-2--2-2-2--2-2--7-----7\-|
E|-0-0--0-0-0--0-0-----------|

Chorus

E|----------------|X2 E|------------|X2 E|---|
B|----------------|   B|------------|   B|---|
G|----------------|   G|------------|   G|---|
D|-11-11-11--11-9-|   D|-7-7-7--7-5-|   D|-2-|
A|-11-11-11--11-9-|   A|-7-7-5--7-5-|   A|-2-|
E|--9--9--9---9-7-|   E|-5-5-5--5-3-|   E|-0-|

Bridge

E|-------------------------|X2
B|-------------------------|
G|-------------------------|
D|-5-5-5-5-5-5-5-5-5-----2-|
A|-5-5-5-5-5-5-5-5-5-3-3-2-|
E|-3-3-3-3-3-3-3-3-3-----0-|

Solo

(???)

Intro
Verse
Chorus
Verse
Chorus
Bridge
Verse
Chorus
Solo 
Verse
Chorus
Verse
Chorus
Bridge
(Feed Back/Random Slides/Scratches/Whammy Bar)

Hey mama. Come on, come on.
I don't know.
Come on, come on. This is it.
I kinda got a boyfriend.
No, no. This is happening. This is the time, now.
Uh, oh, ok!
Alright, come on, go, go...

You're loose
(Slip it in)
Put your brain in a noose
(Slip it in)
The next day you regret it
(Slip it in)
But, you're still loose

You say you don't want it
You don't want it
Say you don't want it
Then you slip it on in

In, in, in

You feel like a whore
(Slip it in)
But what you did the night before
(Slip it in)
You decided to be all loose
(Slip it in)
And go all crazy

You say you don't want it
You don't want it
Say you don't want it
But then you slip it on in

In, yeah

You slip it in
You slip it in

You say you didn't think
(Slip it in)
You said you had too much to drink
(Slip it in)
Is it in the chemical?
(Slip it in)
Or is it just some part of you?

You say you don't want it
You don't want it
Say you don't want it
But then you slip it on in

In, in, in

You regret how you felt
(Slip it in)
You felt it
(Slip it in)
You decided to be all loose
(Slip it in)
It's what you choose

You say you don't want it
You don't want it
Say you don't want it
But then you slip it on in

You slip it in
You slip it in

Alright! Hey! Hey!

You say you got a boyfriend
(Slip it in)
But you're hinting at my friends
(Slip it in)
And everybody else's friend
(Slip it in)
You're not loose, you're wide open

And you say you don't want it
You don't want it
Say you don't want it
Then you slip it on in

In, in, in

You're getting around
(Slip it in)
I'm not putting it down
(Slip it in)
It's just what it is
(Slip it in)
Getting it while it's around

You say you don't want it
You don't want it
You don't want it
But then you slip it on in

In, in, in

You slip it in
You slip it in

Mount up!
Comments