Black Flag - Rise Above Chords & Tabs

 

Rise Above Chords & Tabs

Black Flag Chords & Tabs

Version: 1 Type: Tab 1 rating
1 star 2 stars 3 stars 4 stars 5 stars
comments

Rise Above Tab

this is evan from Version IV. i was listening to rise above by black flag and immediatly learned to play it.
anyway, here it is.

-------------------------------------------|----
-------------------------------------------|--
-------------------------------------------|-
-------------------------------------------|       repeat2 times
-------------------------------------------|  
12-12-12-11-11-11-10-10-10-9-9-9-9|

--------------------------------------------
-------------------------------------------
----------------------------------------
------------------------------------------------- repeat 2 times             
11-11-11-10-10-10-9--9---9--8-8-8-8---------
12-12-12-11-11-11-10-10-10-9-9-9-9---

--------------------------------|---------------------------------------------
--------------------------------|---------------------------------------------
--------------------------------|---------------------------------------------
--------------------------------|---------------------------------------------
5-5-5-7-7-7-7-5-5-5-7-7-7-7|-11-11-11-10-10-10-9--9--9---8-8-8-8-
3-3-3-5-5-5-5-3-3-3-5-5-5-5|-12-12-12-11-11-11-10-10-10-9-9-9-9-

-----------------------------------|-----------------------------------------------
-----------------------------------|-----------------------------------------------
-----------------------------------|-----------------------------------------------
-----------------------------------|-----------------------------------------------
5-5-5-7-7-7-7-5-5-5-7-7-7-7-0|3-------------------------5-------------------
3-3-3-5-5-5-5-3-3-3-5-5-5-5-0|1-1-1-1-1-1-1-1-1-1-1-3-3-3-3-3-3-3-3-3

then one of those slidey thingies where you put our pick at the bridge and then
slide it down the fretboard. couldn't tell ya wat its called but Van Halen invented
it!! (no wonder)
[ Tab from: http://www.guitartabs.cc/tabs/b/black_flag/rise_above_tab.html ]
0-2-0-2-0-2-0-2-|----------------------------------|
0-2-0-2-0-2-0-2-|----------------------------------|
0-2-0-2-0-2-0-2-|----------------------------------|
0-0-0-0-0-0-0-0-|----------------------------------| thats basically what the verse is.
-------------------|-5-5-5-7-7-7-7--5-5-5-7-7-7-7| get back to me if you figure out
-------------------|-3-3-3-5-5-5-5--3-3-3-5-5-5-5| exactly how to write it ( email at bottom).

--------------------------------------------------------------|
--------------------------------------------------------------|
--------------------------------------------------------------|
--------------------------------------------------------------| this for the chorus. needs work.
10-x-x-x-x-10-9-x-x-x-x-9-8-x-x-x-x-8-5-5-5-7-7-7-7| it sounds like it though.
8--x-x-x-x-8---7-x-x-x-x-7-6-x-x-x-x-6-3-3-3-5-5-5-5|

---------------------------------|
---------------------------------|
---------------------------------|
---------------------------------| thats the outro. simple enough.
5-5-5-7-7-7-7-5-5-5-7-7-7-7| just keep doing that till the song stops.
3-3-3-5-5-5-5-3-3-3-5-5-5-5|


Lyrics:

JEALOUS COWARDS TRY TO CONTROL
RISE ABOVE
WE'RE GONNA RISE ABOVE
THEY DISTORT WHAT WE SAY
RISE ABOVE
WE'RE GONNA RISE ABOVE
TRY AND STOP WHAT WE DO
RISE ABOVE
WHEN THEY CAN'T DO IT THEMSELVES

WE ARE TIRED OF YOUR ABUSE
TRY TO STOP US IT'S NO USE

SOCIETY'S ARMS OF CONTROL
RISE ABOVE
WE'RE GONNA RISE ABOVE
THINK THEY'RE SMART
CAN'T THINK FOR THEMSELVES
RISE ABOVE
WE'RE GONNA RISE ABOVE
LAUGH AT US 
BEHIND OUR BACKS
I FIND SATISFACTION
IN WHAT THEY LACK

WE ARE TIRED OF YOUR ABUSE
TRY TO STOP US IT'S NO USE

WE ARE BORN WITH A CHANCE
RISE ABOVE
WE'RE GONNA RISE ABOVE
I AM GONNA HAVE MY CHANCE
RISE ABOVE 
WE'RE GONNA RISE ABOVE

WE ARE TIRED OF YOUR ABUSE
TRY TO STOP US IT'S NO USE

RISE ABOVE
RISE ABOVE
RISE ABOVE
WE'RE GONNA RISE ABOVE
WE'RE GONNA RISE ABOVE
WE'RE GONNA RISE ABOVE

any way, its not perfect. email me at
evan_necro48@hotmail.com or check
out my bands website at :

www.versioniv.tk
Comments