Black Flag - Revenge Chords & Tabs

 

Revenge Chords & Tabs

Black Flag Chords & Tabs

Version: 1 Type: Tab 1 rating
1 star 2 stars 3 stars 4 stars 5 stars
comments

Revenge Tab

Black Flag
Revenge
by Wolfstrike
Wolfstrike2@usinmail.com


(u= up stroke , d= down stroke, strum previous chord )
 
(Ginn usually inporvises a solo during the whole second round)

intro


E:--------------------------------------------------------------|
B:--------------------------------------------------------------|
G:--------------------------------------------------------------|
D:-9--9---------------------------9-----------------------------|
A:-9--9---------------------------9-----------------------------|
E:-7--7-u-d-u-d-u-d-u-d-u-d-u-d-0-7-u-d-u-d-u-d-u-d-u-d-u-d-u-d-|


main riff

E:-------------------------4-7-4-4-------------------------|
B:-------------------------4-7-4-4-------------------------|
G:-------9-x-----------------------6-4-4-------------------|
D:-6-x-x-9-x-9-x-x-x-4-x-6---------------6-4---------------|
A:-6-x-x-7-x-9-x-x-x-4-x-6-------------------6-4-----------|
E:-4-x-x-----7-x-x-x-2-x-4-----------------------7--(4)----|


[ Tab from: http://www.guitartabs.cc/tabs/b/black_flag/revenge_tab.html ]
E:-------------------------0------------------------------------|
B:-------------------------0----------------14--14--14--14--14--|
G:---------1-1-1-----------0-----2-2-4b-----16b-16b-16b-16b-16b-|
D:-2-------2-2-2-4---4-4-4-------2-2----------------------------|
A:-2-----------2-4---4-4-4-------0-0----------------------------|
E:-0-----------0-2----------------------------------------------|


E:-----0----------------------------------------------------|
B:-----0----------------------------------------------------|
G:--2b---2-2------------------------------------------------|
D:-------2-2-2-2-2-2-2-2-x---6------------------------------|
A:-----------2-2-2-2-2-2-x---6------------------------------|
E:-----------0-0-0-0-0-0-x---4-u-d-u-d-u-d-u-d-u-d-u-d-u-d--|



  new starting riff with harmonics

E:-----------------------------------------|
B:-----------------------------------------|
G:--------------------------repeat-4 times-|
D:-9--9---------9--9-----------------------|
A:-9--9---------9--9-----------------------|
E:-7--7---7--7-----------------|


  ending riff

E:------------------------------------------------------|
B:------------------------------------------------------|
G:------------------------------------------------------|
D:-6--------------------------------------------------6-|
A:-6--------------------------------------------------6-|
E:-4--4-|










Comments