Black Flag - Police Story Chords & Tabs

 

Police Story Chords & Tabs

Black Flag Chords & Tabs

Version: 1 Type: Tab 0 ratings
1 star 2 stars 3 stars 4 stars 5 stars
comments

Police Story Tab

II    II                            Band: Black Flag
II II II II                         Song: Police Story
II II II II                         Album: Damaged
   II    II

If you live in NH and wanna start a disgusting band, e-mail me.

(Alien noise)
then...

Verse (x4)

e-----------------------------|
B-----------------------------|
G-----------------------------|
D---5-5-5---------------------|
A--3-3-3--------5/7-5/7-5/7--|
E----------------3/5-3/5-3/5--|

Chorus (x2)- "Understand! We're fighting a war, we can't win!"
[ Tab from: http://www.guitartabs.cc/tabs/b/black_flag/police_story_tab.html ]
e-------------------------------------------------------------------|
B-------------------------------------------------------------------|
G-------------------------------------------------------------------|
D---5-5-5-5--7-7-7-7--5-5-5-5--7-7-7-7--5-5-5-5--7-7--3-------------|
A---3-3-3-3--5-5-5-5--3-3-3-3--5-5-5-5--3-3-3-3--5-5--1-------------| (let ring)
E-------------------------------------------------------------------|

Lead into verse

e------------------------------------------------------------------|
B------------------------------------------------------------------|
G------------------------------------------------------------------|
D------------------------------------------------------------------|
A---5--------------Then hit some random notes----------------------|
E---3-(let ring)------and do some tremolo picking------------------|

Verse (x4)
Chorus (x2)
Super short solo
Verse (x4)
Chorus (x2)
Random notes
Verse (x4)
Chorus (x2)

Corrections, hate, suggestions, requests, send to fuck@chinesecool.com

If you steal my tab, gimme some credit please =(
Comments