Black Flag - I Love You Chords & Tabs

 

I Love You Chords & Tabs

Black Flag Chords & Tabs

Version: 1 Type: Tab 0 ratings
1 star 2 stars 3 stars 4 stars 5 stars
comments

I Love You Tab

Band: Black Flag
Song: I Love You


tabbed by jam9383@yahoo.com


Intro

e---------------------------------------------------------------------|
B-15b--13-------------------------------------------------------------|
G---------14-13-------------------------------------------------------|
D----------------15-13-12---------------------------------------------|
A--------------------------11-----------------------------------------|
E---------------------------------------------------------------------|

Bridge

e---------------------------------------------------------------------|
B---------------------------------------------------------------------|
G----------------6-x-x-x-6-6------------------------------------------|
D--6-x-x-x-6-6---6-x-x-x-6-6------------------------------------------|
A--6-x-x-x-6-6---4-x-x-x-4-4------------------------------------------|
E--4-x-x-x-4-4--------------------------------------------------------|

e---------------------------------------------------------------------|
B---------------------------------------------------------------------|
G---------------------------------------------------------------------|
D--9-9-9-9-9--6-6-6-6-6--9-9-9-9-9--6-6-6-6-6-------------------------|
A--9-9-9-9-9--6-6-6-6-6--9-9-9-9-9--6-6-6-6-6-------------------------|
E--7-7-7-7-7--4-4-4-4-4--7-7-7-7-7--4-4-4-4-4-------------------------|
[ Tab from: http://www.guitartabs.cc/tabs/b/black_flag/i_love_you_tab.html ]
e---------------------------------------------------------------------|
B---------------------------------------------------------------------|
G---------------6--6--x-x-x-6-----------------------------------------|
D--7--7--7-7-7--6--6--x-x-x-6-----------------------------------------|
A--7--7--7-7-7--4--4--x-x-x-4-----------------------------------------|
E--5--5--5-5-5--------------------------------------------------------|

Chorus

e---------------------------------------------------------------------|
B---------------------------------------------------------------------|
G---------------------------------------------------------------------|
D--9-9-9-9-9--6--9-9-9-9-9--6--9-9-9-9-9--6--4-----------2------------|
A--9-9-9-9-9--6--9-9-9-9-9--6--9-9-9-9-9--6--4--2--------2------------|
E--7-7-7-7-7--4--7-7-7-7-7--4--7-7-7-7-7--4--2-----4--2--0------------|

e---------------------------------------------------------------------|
B---------------------------------------------------------------------|
G---------------------------------------------------------------------|
D---4--------------4----------------4------------2--------------------|
A---4--2-----------4--2-------------4--2---------2--------------------|
E---2-----4---2----2------4---2-----2-----4--2---0--------------------|

Solo

e---------------------------------------------------------------------|
B---15b--13-----------------------------------------------------------|
G-------------14-13---------------------------------------------------|
D--------------------15--13-------------------------------------------|
A----------------------------14--12-----11~---------------------------|
E---------------------------------------------------------------------|

e---------------------------------------------------------------------|
B--8b-7-8---11-10--13b-15-16b--16p14p13-------------------------------|
G----------------------------------------15p13------------------------|
D----------------------------------------------15p13------------------|
A----------------------------------------------------15p13--12--11~---|
E---------------------------------------------------------------------|


any corrections/comments contact me and please rate
Comments