Black Flag - Depression Chords & Tabs

 

Depression Chords & Tabs

Black Flag Chords & Tabs

Version: 1 Type: Tab 0 ratings
1 star 2 stars 3 stars 4 stars 5 stars
comments

Depression Tab

On the Intro Greg do some noise in E or something

Verse
E|----------------------------------|
B|----------------------------------|
G|------5-7-5--------55555--77777---|
D|--77--5-7-5-7-5-2--55555--77777---|4X
A|--77--3-5-3-7-5-2--33333--55555---|
E|--55--------5-3-0-----------------|

Chorus
E|----------------------------------|
B|----------------------------------|
G|----------------55555--77777------|
D|--55555--77777--55555--77777------|2X
A|--55555--77777--33333--55555------|
E|--33333--55555--------------------|

Pre-Verse
E|------------------|
B|------------------|
G|------------------|
D|-777--333--555----|2X
A|-777--333--555----|
E|-555--111--333----|

Verse
E|----------------------------------|
B|----------------------------------|
G|------5-7-5--------55555--77777---|
D|--77--5-7-5-7-5-2--55555--77777---|4X
A|--77--3-5-3-7-5-2--33333--55555---|
E|--55--------5-3-0-----------------|

Chorus
E|----------------------------------|
B|----------------------------------|
G|----------------55555--77777------|
D|--55555--77777--55555--77777------|2X
A|--55555--77777--33333--55555------|
E|--33333--55555--------------------|
[ Tab from: http://www.guitartabs.cc/tabs/b/black_flag/depression_tab.html ]
Pre-Verse
E|------------------|
B|------------------|
G|------------------|
D|-777--333--555----|2X
A|-777--333--555----|
E|-555--111--333----|

Verse
E|----------------------------------|
B|----------------------------------|
G|------5-7-5--------55555--77777---|
D|--77--5-7-5-7-5-2--55555--77777---|4X
A|--77--3-5-3-7-5-2--33333--55555---|
E|--55--------5-3-0-----------------|

Chorus
E|----------------------------------|
B|----------------------------------|
G|----------------55555--77777------|
D|--55555--77777--55555--77777------|2X
A|--55555--77777--33333--55555------|
E|--33333--55555--------------------|

Pre-Verse
E|------------------|
B|------------------|
G|------------------|
D|-777--333--555----|2X
A|-777--333--555----|
E|-555--111--333----|

(SOLO)I just can't figure out what Greg do for solo, so if you can, email me!

Chorus
E|----------------------------------|
B|----------------------------------|
G|----------------55555--77777------|
D|--55555--77777--55555--77777------|2X
A|--55555--77777--33333--55555------|
E|--33333--55555--------------------|

And the song and with some greatful Greg's noise.


Tab by PAULO MARASCA FILHO 
-----------------------------paulocobain27@walla.com-------------------------
Comments