Black Eyed Peas - Lets Get Retarded Chords & Tabs

 

Lets Get Retarded Chords & Tabs

Black Eyed Peas Chords & Tabs

Version: 1 Type: Tab 0 ratings
1 star 2 stars 3 stars 4 stars 5 stars
comments

Lets Get Retarded Tab

   
Artist:  Black Eyed Peas
Song:  Let's Get Retarted
Album:  Elephunk
Tabbed by:  Rick  (rickrack97@hotmail.com)
AIM:  rickrack97

Chords:

Bm   (x24432)
F#m  (244222)
F#   (244322)
G    (355433)
D    (x00232)


Intro:  after the bassline plays a few times

E|--2-----------2-----------3-----------2---|
B|--3-----------2-----------3-----------2---|
G|--4-----------2-----------4-----------3---|
D|--4-----------4-----------5-----------4---|
A|--2-----------4-----------5-----------4---|
E|--------------2-----------3-----------2---|


Verse:

E|--2-2---2-2---3-3---2-2---|
B|--3-3---3-3---3-3---2-2---|
G|--4-4---2-2---4-4---3-3---|
D|--4-4---0-0---5-5---4-4---|
A|--2-2---0-0---5-5---4-4---|
E|--------------3-3---2-2---|


Chorus:
[ Tab from: http://www.guitartabs.cc/tabs/b/black_eyed_peas/lets_get_retarded_tab.html ]
E|-2-2-2-2--2----5------2----|
B|-3-3-3-3--3----5------2----|
G|-4-4-4-4--2----4------3----|
D|-4-4-4-4--0----5------4----|
A|-2-2-2-2--0----5------4----|
E|---------------3------2----|


Other Chorus:  this starts about 2:05 into the song

E|--2-----------2-----------3-----------2---|
B|--3-----------2-----------3-----------2---|
G|--4-----------2-----------4-----------3---|
D|--4-----------4-----------5-----------4---|
A|--2-----------4-----------5-----------4---|
E|--------------2-----------3-----------2---|


Interlude:

E|--2---2-2-----2---2-2-----2---2-2-----2---2-2----|
B|--3---3-3-----3---3-3-----3---3-3-----3---3-3----|
G|--4---4-4-----4---4-4-----4---4-4-----4---4-4----|
D|--4---4-4-----4---4-4-----4---4-4-----4---4-4----|
A|--2---2-2-----2---2-2-----2---2-2-----2---2-2----|
E|-------------------------------------------------|


That's it.  This song stays in your head forever after you hear it.  Later.
Comments