Black Eyed Peas - Lets Get Retarded Chords & Tabs

 

Lets Get Retarded Chords & Tabs

Black Eyed Peas Chords & Tabs

Version: 3 Type: Bass Tab 0 ratings
1 star 2 stars 3 stars 4 stars 5 stars
comments

Lets Get Retarded Bass Tab

-------------------------------------------------------------------------------
			     Lets get retarded - Black Eyed Peas
-------------------------------------------------------------------------------

Tabbed By : Mitch
e-mail: mitchrassman@netzero.net
This is the easiest way to play it once you get used to it.
All parts of the song are here and are correct.

Tuning:

Intro:
G|-------------------------------------4-6-7-----------------------|
D|---------------------5-------4-------------7---------5-------4---|
A|-2---2-4-5-0-5-0---5---5---4---4-2-----------5-----5---5---4---4-|     x2
E|---2-------------3-------2---------2-----------5-3-------2-------|

Verse:
G|-----------------------------------------------------------------|
D|---------------------5-------4-----------------------------------|
A|-2---2-4-5-0-5-0---5---5---4---4---------------------------------|     x3
E|---2-------------3-------2---------------------------------------|

Prechorus:
G|-----------------------------------------------------------------|
D|-----0---------------0-----------4-------------------------------|
A|-2---------------2-------------4---4-----------------------------|     x1
E|---------3---2-----------3-3-2-----------------------------------|

Chorus:
G|-------------------------------------4-6-7-----------------------|
D|---------------------5-------4-------------7---------5-------4---|
A|-2---2-4-5-0-5-0---5---5---4---4-2-----------5-----5---5---4---4-|     x2
E|---2-------------3-------2---------2-----------5-3-------2-------|

Preverse:
G|-----------------------------------------------------------------|
D|-----0-------------------0---------------------------------------|
A|-2-----------------2--2------------------------------------------|     x1
E|---------3--3--2-------------3--3--2--2--------------------------|

Verse:
G|-----------------------------------------------------------------|
D|---------------------5-------4-----------------------------------|
A|-2---2-4-5-0-5-0---5---5---4---4---------------------------------|     x3
E|---2-------------3-------2---------------------------------------|

Prechorus:
G|-----------------------------------------------------------------|
D|-----0-----------------0--0------------4-------------------------|
A|-2---------------2--2----------------4---4-----------------------|     x1
E|---------3---2---------------3--3--2-----------------------------|
[ Tab from: http://www.guitartabs.cc/tabs/b/black_eyed_peas/lets_get_retarded_btab_ver_3.html ]
Chorus:
G|-------------------------------------4-6-7-----------------------|
D|---------------------5-------4-------------7---------5-------4---|
A|-2---2-4-5-0-5-0---5---5---4---4-2-----------5-----5---5---4---4-|     x2
E|---2-------------3-------2---------2-----------5-3-------2-------|

Bridge:
1st and 3rd time
G|-----------------------------------------------------------------|
D|-------------------------4---4-----------------------------------|
A|-2---2---5---5---5---5-----4---4---------------------------------|
E|---2---2---5---5---5---5-----------------------------------------|
2nd time                                                                 x3
G|-----------------------------------------------------------------|
D|-----------------------2--4---4----------------------------------|
A|-2---2---5---5---5---5-----4---4---------------------------------|
E|---2---2---5---5---5---------------------------------------------|


G|-----------------------------------------------------------------|
D|-----------------------------------------------------------------|
A|-5-5-5-5-5-5-5-5-7-7-7-7-4-4-4-4---------------------------------|     x1
E|-----------------------------------------------------------------|

G|-----------------------------------------------------------------|
D|-----------------------------------------------------------------|
A|-2---2--2---2---2--2---------------------------------------------|     x3
E|-----------------------------------------------------------------|

G|-----------------------------------------------------------------|
D|--------0---0-----------------------0---0------------------------|
A|-2---2-----------------------2---2-------------------------------|     x1
E|---------------3---3--2---2----------------3--3--2--2------------|

Prechorus:
G|-----------------------------------------------------------------|
D|-----0-----------------0--0------5-------4-----------------------|
A|-2---------------2--2----------5---5---4---4---------------------|     x1
E|---------3---2---------------3-------2---------------------------|

Chorus:
G|-------------------------------------4-6-7-----------------------|
D|---------------------5-------4-------------7---------5-------4---|
A|-2---2-4-5-0-5-0---5---5---4---4-2-----------5-----5---5---4---4-|     x2
E|---2-------------3-------2---------2-----------5-3-------2-------|

G|-----------------------------------------------------------------|
D|-----------------------2--4---4----------------------------------|
A|-2---2---5---5---5---5-----4---4---------------------------------|     x3
E|---2---2---5---5---5---------------------------------------------|


G|-----------------------------------------------------------------|
D|-----------------------------------------------------------------|
A|-5-5-5-5-5-5-5-5-7-7-7-7-4-4-4-4-2-------------------------------|     x1
E|-----------------------------------------------------------------|
Comments