Black Eyed Peas - Dont Lie Chords & Tabs

 

Dont Lie Chords & Tabs

Black Eyed Peas Chords & Tabs

Version: 1 Type: Tab 0 ratings
1 star 2 stars 3 stars 4 stars 5 stars
comments

Dont Lie Tab

   
-------------------------------------------------------------------------------
			     DON'T LIE - Black Eyed Peas
-------------------------------------------------------------------------------
Tabbed by: Chaz [http://greendaypass.tk]
Email: c3_2005@hotmail.co.uk go ahead and add me lets chat!

Tuning: Standard EADGBe


   [A]                [A]
[ Tab from: http://www.guitartabs.cc/tabs/b/black_eyed_peas/dont_lie_tab.html ]
e|-5-xx-5-x-5-4-5-4/2-5-xx-5-x-5-4-5-4/2-----------------------------------|
B|-5-xx-5-------------5-xx-5-x---------------------------------------------|
G|-6-xx-6-------------6-xx-6-x---------------------------------------------|
D|-7-xx-7-------------7-xx-7-x---------------------------------------------|
A|-7-xx-7-------------7-xx-7-x---------------------------------------------|
E|-5-xx-5-------------5-xx-5-x---------------------------------------------|
Comments