Black Dahlia Murder - Unhallowed Chords & Tabs

 

Unhallowed Chords & Tabs

Black Dahlia Murder Chords & Tabs

Version: 1 Type: Tab 0 ratings
1 star 2 stars 3 stars 4 stars 5 stars
comments

Unhallowed Tab

   
Tuning: C,G,C,F,A,D, (Drop C)

 . - palm mute
 / - slide
 x - staccato
 D|-----------------------------|
 A|-----------------------------|
 F|-----------------------------|
 C|-----------------------------|
 G|--000-0-000-----000-0-000----|
 C|--000-0-000-----000-0-000----|x2
     ... . ...     ... . ...

  Riff 2

  |------------------------|----------------------------|
  |------------------------|----------------------------|
  |o---------------------o-|----------------------------|
  |o---------------------o-|----------------------------|
  |--0--1--5--5/7--5p4-----|--5--5/7--4--4/13-12-10-8-0-|
  |--0--3------------------|----------------------------|
     .
    

 

[ Tab from: http://www.guitartabs.cc/tabs/b/black_dahlia_murder/unhallowed_tab.html ]
  Riff 3 
  |------------------------------------|-----------------------------|
  |------------------------------------|-----------------------------|
  |------------------------------------|-----------------------------|
  |------------------------------------|--------------------------33-|
  |--0-1--000-000-000-000-5/4-00-7-33--|-000-000-000-000-5/4-00-7-33-|
  |--0-3--000-000-000-000-3/2-00-5-33--|-000-000-000-000-3/2-00-5----|
     .    ... ... ... ...     ..         ... ... ... ...     ..

                          
  |-----------------------------|--------------------------------|
  |-----------------------------|--------------------------------|
  |-----------------------------|--------------------------------|
  |-----------------------------|-----------------------------3x-|
  |--000-000-000-000-5/4/00-7-1-|-000-000-000-000-5/4-00-7-00----|
  |--000-000-000-000-3/2-00-5-3-|-000-000-000-000-3/2-00-5-00----|
     ... ... ... ...     ..       ... ... ... ...     ..   ..

   Repeat Riff 3 w/ slight change
   
  |-----------------------------------|
  |-----------------------------------|
  |-----------------------------------|
  |-----------------------------------|
  |--000-000-000-000-5/4-00-7-00-1\\\-| hold into "Funeral Thirst"
  |--000-000-000-000-3/2-00-5-00------|
     ... ... ... ...     ..   ..
Comments