Black Dahlia Murder - Thy Horror Cosmic Chords & Tabs

 

Thy Horror Cosmic Chords & Tabs

Black Dahlia Murder Chords & Tabs

Version: 1 Type: Bass Tab 0 ratings
1 star 2 stars 3 stars 4 stars 5 stars
comments

Thy Horror Cosmic Bass Tab

   
ARTIST: The Black Dahlia Murder
Song: Thy Horror Cosmic
Tabbed by: Ivan Garcia 
Credits: The Black Dahlia Murder
Tuning: C (C,F,A#,D#)

Openin With a slide from 7th or 8th fret to first
D#|----------------------|
A#|----------------------|
F |----------------------|
C |-1-111-3-1-1-0----101-|

D#|-----------------------------------|
A#|-----------------------------------|
F |------------555555555555-----------|
C |-11111111111------------0000000000-|
4x

D#|-----------------------------|
A#|-----------------------------|
F |--0-2-3-5-3-2-0---0-2-3-2-0--|
C |-1-------------0-4---------4-|
2x

D#|-------------------------------------------------|
A#|-------------------------------------------------|
F |-----------------------------2--1--5--2--1--2--5-|
C |-1-1111-111-3-333-111-333-000-00-00-00-00-00-00--|
3x

D#|--------------------------|
A#|--------------------------|
F |--------------------------|
C |-1-1111-111-3-333-111-333-|

quickly...
D#|---------------------------------------------|
A#|---------------------------------------------|
F |---------------------------------------------|
C |-1111111111111111111111-000000000000-5-3-1-0-|
2x
[ Tab from: http://www.guitartabs.cc/tabs/b/black_dahlia_murder/thy_horror_cosmic_btab.html ]
D#|-------------------------------------------------|
A#|-------------------------------------------------|
F |-----------------------------2--1--5--2--1--2--5-|
C |-1-1111-111-3-333-111-333-000-00-00-00-00-00-00--|
3x

D#|--------------------------|
A#|--------------------------|
F |--------------------------|
C |-1-1111-111-3-333-111-333-|

Quickly...
D#|-----------------------------------|
A#|-----------------------------------|
F |------------555555555555-----------|
C |-11111111111------------0000000000-|
4x

D#|---------------|----------------------|
A#|---------------|----------------------|
F |---------------|----------------------|
C |-1-111-3-111-0-|-1-111-3-111-0-0000-0-|
3x		   4th time

D#|------------------------------------------------------------------|
A#|------------------------------------------------------------------|
F |-00000000000000---------------------------------------------------|
C |---------------11111111111111-33333333333333-11111111-0000-333333-|
2x

D#|-------------------------------------------------------|
A#|-------------------------------------------------------|
F |-----------------------------------------------555-333-|
C |-000000000000-111111111111-333333333333-111-000--------|
2x

D#|-----------------------------------|
A#|-----------------------------------|
F |------------555555555555-----------|
C |-11111111111------------0000000000-|
3x

Outro
D#|-----------------------------------------|
A#|-----------------------------------------|
F |------------555555555555-----------------|
C |-11111111111------------0-0000-0-0-0-0-0-|
Comments