Black Dahlia Murder - Dave Goes To Hollywood Chords & Tabs

 

Dave Goes To Hollywood Chords & Tabs

Black Dahlia Murder Chords & Tabs

Version: 1 Type: Tab

Dave Goes To Hollywood Tab

Note:Left Gtr only

Key-palm muting-*
    h-hammer-on


Intro (x 2)
--------------------------------------------------------------|
--------------------------------------------------------------|
--------------------------------------------------------------|
--------------------------------------------------------------|
--------------------------------------------------------------|
-12-00-8-00-11-00-7-00-12-00-8-00-11-00-11~/------------------|
    **   **    **   **    **   **    **
--------------------------------------------------------------|
--------------------------------------------------------------|
--------------------------------------------------------------|
--------------------------------------------------------------|
--------------------------------------------------------------|
-12-00-8-00-11-00-7-00-12-00-8-00-11-00-7~/-------------------|
    **   **    **   **    **   **    **
[ Tab from: http://www.guitartabs.cc/tabs/b/black_dahlia_murder/dave_goes_to_hollywood_tab.html ]
Pre-verse
--------------------------------------------------------------|
--------------------------------------------------------------|
--------------------------------------------------------------|
--------------------------------------------------------------|
---7--5h7-7h8h11---7------------------------------------------|
000-00---0------547-754---------------------------------------|
*** **   *      *******


Verse
--------------------------------------------------------------|
--------------------------------------------------------------|
--------------------------------------------------------------|
--------------------------------------------------------------|
---7--5h7-7h8h11---------7h8h11-------------------------------|
000-00---0------455875444-------------------------------------|
*** **   *      *********


--------------------------------------------------------------|
--------------------------------------------------------------|
--------------------------------------------------------------|
-----------------------10-------------------------------------|
---7--5h7-8--7---10/7--7---4/55-------------------------------|
000-00---0-87-87-8-/5-0-00-2/33-------------------------------|