Black Crowes - Sting Me Chords & Tabs

 

Sting Me Chords & Tabs

Black Crowes Chords & Tabs

Version: 5 Type: Tab 0 ratings
1 star 2 stars 3 stars 4 stars 5 stars
comments

Sting Me Tab

Band name: The Black Crowes
Song name: Sting Me (Intro)
Tabbed by: Terry Sims (Masterofdarknes)
Email: Floyd_Fan@Teenspot.com

Tuning: DBGDGD

|-------------------------------------------------------------------|
|------------------------------2--0-----2\1--0-1-0---1-0------------|
|--x---x--------------0--------3--0-----3\2--0-0-0---0-0--0---------|
|--x---x--0-----3-----0--------------0-------0-2-0---2~0--3---------|
|--x---x--3--0-----------0-0---------0-------0-0-0---0-0--0---------|
|-------------------------------------------------------------------|

|-------------------------------------------------------------------|
|------------2--0--x--2\1--0-1--0--0----------------------2--0--x---|
|--0---------3--0--x--3\2--0-0-----0-----0--0----0--------3--0--x---|
|-----0--0-----------------0-2--0--0--0-----3-------x--x------------|
|-----0--------------------0-0--------0-----0-----------------------|
|-------------------------------------------------------------------|

|-----------------------------------0-------------------------------|
|--2\1--0--1--0--0--1----1----1--0--1-----------------------1---0---|
|--3\2--0--3--0--0--3----3----3~-0--0---3----3---3---3---0--0---0---|
|-------0--2--0--0--2----2----2~-0------2----2---2---2---0--2---0---|
|-------0--0--0--0--0----0----0--------------------------0----------|
|-------------------------------------------------------------------|
[ Tab from: http://www.guitartabs.cc/tabs/b/black_crowes/sting_me_tab_ver_5.html ]
|-------------------------------------------------------------------|
|--0--------1------------------1--0----------------------0-------1--|
|--0--0-----0----0----5--0--0--0--0----2--(3)(2)---0-----0-------0--|
|--0--2-----3----0----0-----0--2--0------------------2---0---0---2--|
|--0--0-----0----0----------0--0--0------------------0---0---0---0--|
|-------------------------------------------------------------------|

|-------------------------------------------------------------------|
|------------------------------------------1--0---------------------|
|--3---0---5--0--0--0--0----2--(3)(2)---0--0--0---0---0-------------|
|--3---0---0-----0--2--0--------0----------2--0---0---2-------------|
|--0---0---------0--0--0--------0----------0--0-------0-------------|
|-------------------------------------------------------------------|

|-------------------------------------------------------------------|
|--1---------1--0------1---0-------1-------------1------------------|
|--0----0----0-----0---0---0---2--(3)(2)--0------0----0--0--0-------|
|--3----0----2--0--0---2---0-------0---------2--------0--3--2-------|
|--0----0----------0---0---0-------0---------0--------0--0--0-------|
|-------------------------------------------------------------------|

|-------------------------------------------------------------------|
|----------------------0--------------------------------------------|
|--0--0--0--0----0--0--0---0--0--0--0---0--0--0--0------------------|
|--0--------0----0--0--0---0--0--0--0---0--0--0--0------------------|
|--0--3--2--0----0-----0---0-----0--0---0--0--0--0------------------|
|-------------------3---------2-----2-------------------------------|
Comments