Black Crowes - She Talks To Angels Chords & Tabs

 

She Talks To Angels Chords & Tabs

Black Crowes Chords & Tabs

Version: 8 Type: Tab 0 ratings
1 star 2 stars 3 stars 4 stars 5 stars
comments

She Talks To Angels Tab

   
not sure if this is COMPLETELY right, but its pretty damn close


                             E                            E EEE E A E A E
E|-----0---------------0-------0-----0--------------0-------0-|
B|-4h5---5-4/2-0-----0---0-----0-4h5---5-4/2-0----0---0-----0-|
G|---------------1h2-------2p1-1---------------1h2------2p1-1-|
D|-----------------------------2----------------------------2-|
A|-----------------------------2----------------------------2-|
E|-----------------------------0----------------------------0-|

                                E E A E A E
E|-----------------------------|
B|-------0-----2-----0---------|
G|-0h1-1---1-----1-----1---1---|
D|-----------2-----2-----2---2-|
A|-----------------------------|
E|-----------------------------|

                                    E E A E A E
E|-0---0---0---0---0---0-----------|
B|---5---4---2---0---------0-------|
G|-------------------2---1-----1---|
D|---------------------------4---2-|
A|---------------------------------|
E|---------------------------------|

                                  E E A E A E
She never mentions the word addiction
               E E A E A E
In certain company
She'll tell you she's and orphan
After you meet her family

(same rythm as verse)
B B B B B A
A A A A A E
E E A E A E
repeat
[ Tab from: http://www.guitartabs.cc/tabs/b/black_crowes/she_talks_to_angels_tab_ver_8.html ]
She paints her eyes as black as night now
Pulls those shades down tight
Gives a smile when the pain comes
The pains gonna make everything alright

Chorus:
B B B B B A
A A A A A E
E E A E A E
x2
Says she talks to angels
They call her out by her name
She talks to angels
Says they call her out by her name

She keeps a lock of hair in her pocket
She wears a cross around her neck
The hair is from a little boy
And the cross from someone she has not met
Not yet

Chorus

Bridge:
havent really figured it out yet but i think its just A's and E's
She dont know no lover
None that I ever seen
Cuz to her that aint nuthin
But to me ya me
It means everythings

E E A E A E

                                E E A E A E
E|-----------------------------|
B|-------0-----2-----0---------|
G|-0h1-1---1-----1-----1---1---|
D|-----------2-----2-----2---2-|
A|-----------------------------|
E|-----------------------------|

                                    E E A E A E
E|-0---0---0---0---0---0-----------|
B|---5---4---2---0---------0-------|
G|-------------------2---1-----1---|
D|---------------------------4---2-|
A|---------------------------------|
E|---------------------------------|

She paints her eyes as black as night now
Pulls those shades down tight
Theres a smile when the pain comes
The pains gonna make everything alright

Chorus
x9348523894
i dunno figure how long the last chorus part goes on yourself
Comments