Black Crowes - She Talks To Angels Chords & Tabs

 

Black Crowes Chords & Tabs

Version: 3 Type: Chords 0 ratings
1 star 2 stars 3 stars 4 stars 5 stars
comments

She Talks To Angels Chords

   
Im just learning to play so a friend actually gave me this,not sure of its accuracy but 
was playing the whole song in about 15 minutes so Im sure its an easy version but sounds 
to me and recommend it to all the novice players, all apologies in advance for any errors.
[ Tab from: http://www.guitartabs.cc/tabs/b/black_crowes/she_talks_to_angels_crd_ver_3.html ]
intro/outro
............................E....F#Gbm..E..........................
e]---5-----0------0------0--0-0--0-0-0--0---12--7---0-0--0-0-0--0--|
B]4/5--4p20-----0--------0--0-0--0-0-0--0---12--7---0-0--0-0-0--0--|
G]-----------1h2----2-2--0--1-1--2-2-2--1---12--7---1-1--2-2-2--1--|
D]----------------------20--2-2--4-4-4--2---12--7---2-2--4-4-4--2--|
A]--------------------------2-2--4-4-4--2---12--7---2-2--4-4-4--2--|
E]--------------------------0-0--0-0-0--0---12--7---0-0--0-0-0--0--|
.
e]-------------------0------0-0--0-0-0--0---0--0--0--0--0--0--0--0--|
B]-------------2p0---0------0-0--0-0-0--0----5--4-------------------|
G]------1-3p----------------1-1--2-2-2--1----------6--4--2--1-------|
D]4---6------2-----2---4-2--2-2--4-4-4--2----------------------2----|
A]--5-----------------------2-2--4-4-4--2---------------------------|
E]--------------------------0-0--0-0-0--0---------------------------|

..E...F#Gbm...E...

1st verse:...................E     F#Gbm    E...play this 4 each line
She never mentions the word addiction
In certain company
Yes, shell tell you she's an orphan
After you meet her family......D,A,E.F#Gbm,E...(X2)

2nd verse:
She paints her eyes as black as night now...
Pulls those shades down tight
Ya,she gives a smile when the pain comes
The pains gonna make everything alright...

Chorus:...............D.......A.................E F#Gbm E
She says she talks to angels,they call her out by her name
Oh Ya she talks to angels,says they call her out bt her name

3rd verse:
She keeps a lock of hair in her pocket
She wears a cross around her neck
Ya the hair is from a little boy
N the cross from someone she has not met, not yet

Chorus:

Bridge:
A..................D....A................D
She dont know no lover, none that I ever seen
D.....................A.....E.............A.............E..F#Gbm..E
And to her that aint nothin,but to me, it means, means everything

Repeat 2nd verse.
Comments