Black Crowes - Remedy Chords & Tabs

 

Remedy Chords & Tabs

Black Crowes Chords & Tabs

Version: 1 Type: Tab 0 ratings
1 star 2 stars 3 stars 4 stars 5 stars
comments

Remedy Tab

   
##################################################################################
# This file is the author's own work and represents their interpretation of the  #
# song. You may only use this file for private study, scholarship, or research.  #
##################################################################################

"Remedy"
The Black Crowes
Tabbed By Eric S. Vanstimpy@aol.com


[ Tab from: http://www.guitartabs.cc/tabs/b/black_crowes/remedy_tab.html ]
F5   E5  C5         Eb5 D5  Bb5
e|--------------------------------------||
B|--------------------------------------||
G|---10---9--------------8---7----------||  repeat this 2 times
D|---10---9---10---------8---7---8------||
A|---8----7---10---------6---5---8------||                                 
E|------------8------------------6------||
         
            
Verse :
    D  D    F(A bass)  D     D 
e|--5--5----5----5--5--5--5--5--||
B|--5--5----5h6--6--6--5--6--5--||
G|--5--5----5----5--5--5--5--5--||  repeat 2 times
D|--5--5----5h7--7--7--5--7--5--||
A|------------------------------||          
E|------------------------------||    

    C  C    Eb(G Bass) C     C 
e|--3--3----3----3--3--3--3--3--||
B|--3--3----3h4--4--4--3--4--3--||
G|--3--3----3----3--3--3--3--3--||  repeat 2 times
D|--3--3----3h5--5--5--3--5--3--||
A|------------------------------||          
E|------------------------------||

During the verses, these two parts are played repeatedly.
Then about half way through a verse they jump back to the intro riff.
(For example, during verse 1 they switch on : If I come on like a dream)

Chorus :
again no attempt is made to show timing or rhythem, listen to the music,
it ain't that hard.

   Bb5  C#5  Ab5  Eb5
e--------------------||
B--------------------||
G-------6---------8--|| Repeat this during the chorus
D--8----6----6----8--||
A--8----4----6----6--||
E--6---------4-------||




Not to hard, enjoy. Vanstimpy@aol.com
Comments