Black Crowes - Jealous Again Chords & Tabs

 

Jealous Again Chords & Tabs

Black Crowes Chords & Tabs

Version: 1 Type: Tab 0 ratings
1 star 2 stars 3 stars 4 stars 5 stars
comments

Jealous Again Tab

##################################################################################
# This file is the author's own work and represents their interpretation of the  #
# song. You may only use this file for private study, scholarship, or research.  #
##################################################################################


"Jealous Again"
The Black Crowes
Tabbed by Eric S. Vanstimpy@aol.com

Intro : 
e:------------------------------------------------------------------|
B:5/7--7-7--7h8-7-7-7-7h8-8-8-7-7----7--7-7--7h8-7-7h8-7-7-7h8-8-7--|
G:5/7--7-7--7---7-7-7-7---7-7-7-7----7--7-7--7---7-7---7-7---7-7-7--|
D:----------7h9-7---7-7h9-9-9-7-7------------7h9-7-7h9-7-7-7h9-9-7--|
A:------------------------------------------------------------------|
E:------------------------------------------------------------------|


e:----------------------------------------------------------------------------|
B:-----------------15---------------------------------------------------------|
G:------12-14b(16)----14b(16)-14-12----12---------12-------12-------12--------|
D:12h14-----------------------------14------12h14----12h14----12h14----12h14--|
A:----------------------------------------------------------------------------|
E:----------------------------------------------------------------------------|


Chorus                                             
e:--------------------------------------------|
B:----7--8-8-7---5-5-7-7--4-4-7-7--0-0-1-1-0--|
G:----7--7-7-7---5-5-7-7--4-4-7-7--0-0-0-0-0--|
D:----7--9-9-7---5-5-7-7--4-4-7-7--0-0-2-2-0--|
A:--------------------------------------------|
E:--------------------------------------------|




repeat and fade...
e:------------------------------------|--12----------------------------------|
B:------------------------------------|-----12-15-12-------------------------|
G:12-------12--14b(16)--14b(16)-14-12-|--------------14b(16)-14b(16)-14-12---|
D:---12h14----------------------------|------------------------------------14|
A:------------------------------------|--------------------------------------|
E:------------------------------------|--------------------------------------|



e:---------------------------------------------------------------|
B:----7-7-7---7-7---7---7---8-8-7-7-----7-7-7---7-7---7---8--8-7-|
G:----7-7-7---7-7---7---7---7-7-7-7-----7-7-7---7-7---7---7--7-7-|
D:----7-7-7h9-7-7h9-7---7h9-9-9-7-7-----7-7-7h9-7-7h9-7---9--9-7-|
A:---------------------------------------------------------------|
E:---------------------------------------------------------------|



[ Tab from: http://www.guitartabs.cc/tabs/b/black_crowes/jealous_again_tab.html ]
After the second chorus, there's a break that sounds a bit like this :

   BREAK
e:---------------------------------------------------------------------------|
B:-------1-----------------1------------------------1---------------1--------|
G:---------------0------------------------------------------0---------------0|
D:----0h2---------------0h2-------2p0-----0------0h2-------------0h2---------|
A:------------0-2--------------------2p0-----------------0-2-------------0-2-|
E:--------------------------------------3------------------------------------|


Here's a small piano-solo, accompanied by the same lick as in the verses,
followed by verse 3 (again the same lick).


REPEAT CHORUS

Break : (Same as before) 


Now there's a break where just Rich is playing :
Keep repeating this :
          BREAK
e:---------------------------|
B:---------------------------|
G:---9/11-11-11-9-7-7-7------|
D:---------------------------|
A:---------------------------|
E:---------------------------|


REPEAT CHORUS TWICE

then again this (without lyrics this time):
   BREAK
e:---------------------------------------------------------------------------|
B:-------1-----------------1------------------------1---------------1--------|
G:---------------0------------------------------------------0---------------0|
D:----0h2---------------0h2-------2p0-----0------0h2-------------0h2---------|
A:------------0-2--------------------2p0-----------------0-2-------------0-2-|
E:--------------------------------------3------------------------------------|


and finally, the SOLO
e:---------------------------------------------------------------------------|
B:------------------------------------3--------------------------------------|
G:---------0----0----0----0----0--2/4---4\2-0---0--2b(4)-0--------0-----0----|
D:------0h2--0h2--0h2--0h2--0h2---------------2----------------0h2--0h2---0h2|
A:---------------------------------------------------------------------------|
E:---------------------------------------------------------------------------|





e:---------------------------------------------------------------------------|
B:----------------3----------------------------------------------------------|
G:0----0----0-2/4---4\2-0---0-0-0-----------12--------12--------12-------12--|
D:--0h2--0h2--------------2-----------12h14-----12h14-----12h14----12h14-----|
A:---------------------------------------------------------------------------|
E:---------------------------------------------------------------------------|

I got time if you got problems. Vanstimpy@aol.com
Comments