Black Crowes - Hard To Handle Chords & Tabs

 

Hard To Handle Chords & Tabs

Black Crowes Chords & Tabs

Version: 2 Type: Bass Tab 0 ratings
1 star 2 stars 3 stars 4 stars 5 stars
comments

Hard To Handle Bass Tab

Bass Tablature
Hard To Handle
More or less as performed by the Black Crowes on "Shake Your Moneymaker"
Transcribed by Dan Amrich (DanAmrich@aol.com)


This bass tab is not 100% accurate; this is merely *one* way to play 
the song, using the Black Crowes' version as a jumping-off point. 
Being a blues rocker, there's plenty of room for interpretation anyway. 

Intro
G----------------------------------------------------
D------0-2-4----2-0-2-0----------0-2-4----2-0-2-0----
A--2-2--------------------2---2-2--------------------
E----------------------------------------------------

[ Tab from: http://www.guitartabs.cc/tabs/b/black_crowes/hard_to_handle_btab_ver_2.html ]
Hey baby here I am I'm a man on your scene...
G----------------------------------------------
D----------------------------------------------
A-2--2-------------0--2--2---------------------
E-----------0--2-------------------------------

            ^-- Repeat from here until end of verse


comin' back for more             Toys & things...
G----------------------------------------------
D----------------------------------------4-4-4-4
A----------------------------------------------
E--------------------0-0-0-0-0-1-2-2-2-2--------

   Hey little thing let me light your candle
G----------------------------------------------
D----------------------------------------------
A--2-------------------------------------------
E----------------------------------------------


...to handle now messin' round (?)
G----------------------------------------------
D----------------------------------------------
A-------------------------------0---2---(x4)---
E---------------------------------0------------

Back to verse
Comments