Black Crowes - Bad Luck Blue Eyes Goodbye Chords & Tabs

 

Bad Luck Blue Eyes Goodbye Chords & Tabs

Black Crowes Chords & Tabs

Version: 2 Type: Tab 0 ratings
1 star 2 stars 3 stars 4 stars 5 stars
comments

Bad Luck Blue Eyes Goodbye Tab

   
##################################################################################
# This file is the author's own work and represents their interpretation of the  #
# song. You may only use this file for private study, scholarship, or research.  #
##################################################################################

This is the tab of Bad Luck Blue Eyes(goodbye)
As you can tell I have taken the liberty of adding all these
Black Crowes songs. Cause last time I checked the server had ONE.
AND THAT IS NOT RIGHT!
Chords Used

F#m 244222
A   x0222x
E   022100
D   x00232
B   x2444x
[ Tab from: http://www.guitartabs.cc/tabs/b/black_crowes/bad_luck_blue_eyes_goodbye_tab_ver_2.html ]
 F#m
|----/----------------|---------------2----------------|
|--5/------5~~~~~|------------/-2--5p2---/\-------|
|---------------------|----------4/---------4/--\p2----|
|---------------------|-----------------------------4--|
|---------------------|--------------------------------|
|---------------------|--------------------------------|
 A                                   
|-----------------------------------|--------------2------|
|------/----/~~~~---2-5---/------|-----------/-2--5p2--|
|----4/---4/----------x----4/--4p2--|---------4/----------|
|--------------------x--------------|---------------------|
|-----------------------------------|---------------------|
|-----------------------------------|---------------------|
 F#m
|------/----5-5-5-5--/-5-----5---5----/--5-----/----/\--/--|
|----5/------------5/----------5----5/-------5/---5/--\/---|
|----------------------------------------------------------|
|----------------------------------------------------------|
|----------------------------------------------------------|
|----------------------------------------------------------|
                     A
|----------------------------------------------------------|
|------3---------------/----/~~~~-----------------------|
|-----x---2-2h4p2----4/---4/---------x--4p2---2------------|
|----x--------------------------------------4--------------|
|-----------------------------------------------4p2p0------|
|----------------------------------------------------------|
               /\
|-----------5-/--\-----|
|------------/~~~~--|
|----------6/----------|
|----------------------|
|----------------------|
|----------------------|


F#m
|------/------/\-------------------2-----/-----------|
|----5/-----5/--\-------/\-2---/-2------/-2----------|
|---------------------4/--\--4/-------4/-----4p2-----|
|-------------------------------------------------4--|
|----------------------------------------------------|
|----------------------------------------------------|
 A
|---------------2------------------------------------|
|------/~~~~---5--/-------------------------------|
|----4/------------4/--4p2---4p2---------------------|
|--------------------------4------4-2p0-----/\-------|
|---------------------------------------4p2/--\p0----|
|----------------------------------------------------|




As usual, anything email me, Vanstimpy@aol.com
Comments