Bjork Brant - My Ghettoblaster Chords & Tabs

 

My Ghettoblaster Chords & Tabs

Bjork Brant Chords & Tabs

Version: 1 Type: Tab 0 ratings
1 star 2 stars 3 stars 4 stars 5 stars
comments

My Ghettoblaster Tab

Band: Brant Bjork
Song: My Ghettoblaster
Album: Brant Bjork & The Operators
Tabbed By: M3X1C0L4

Tuning: EADGBe
Key:
^=Let Ring

Intro:
4x                 9x
E|----------------|---------------|
B|----------------|---------------|
G|----------------|---------------|
D|-7-7-7--6--5----|-7777--6--5----|
A|-5-5-5--4--3----|-5555--4--3----|
E|----------------|---------------|


1st Verse:
P1=12x
P2=1x
P1=8x
P2=1x
P1=4x

P1               P2
E|--------------|----------------|
B|--------------|----------------|
G|--------------|----------------|
D|--------------|-5^^^-----------|
A|-5555--7-7----|-3^^^5^^^-------|
E|-3333--5-5----|-----3^^^-------|


Chorus:
2x
E|--------------------------------------------------------------|
B|--------------------------------------------------------------|
G|--------------------------------------------------------------|
D|-10-10-101010-----------------12-12-121212--------------------|
A|--8--8--8-8-8--10-10-101010---10-10-101010--12-12-121212------|
E|--8--8--8-8-8---8--8--8-8-8---10-10-101010--10-10-101010------|


2nd Verse:
P1=12x
P2=1x
P1=8x
P2=1x
P1=2x
P2=1x
P1=4x

P1               P2
E|--------------|----------------|
B|--------------|----------------|
G|--------------|----------------|
D|--------------|-5^^^-----------|
A|-5555--7-7----|-3^^^5^^^-------|
E|-3333--5-5----|-----3^^^-------|


Chorus:
4x
E|-------------------------------------------------------------|
B|-------------------------------------------------------------|
G|-------------------------------------------------------------|
D|-10-10-101010----------------12-12-121212--------------------|
A|--8--8--8-8-8--10-10-101010--10-10-101010--12-12-121212------|
E|--8--8--8-8-8---8--8--8-8-8--10-10-101010--10-10-101010------|

[ Tab from: http://www.guitartabs.cc/tabs/b/bjork_brant/my_ghettoblaster_tab.html ]
3rd Verse: 
(You gotta hit those notes a couple of times while "^^^^")
E|-------------------------------------------------|
B|-------------------------------------------------|
G|-------------------------------------------------|
D|-8^^^^^^^^10^^^^^^^^6^^^^^^^^8^^^^^^^^-----------|
A|-8^^^^^^^^10^^^^^^^^6^^^^^^^^8^^^^^^^^-----------|
E|-6^^^^^^^^^8^^^^^^^^4^^^^^^^^6^^^^^^^^-----------|


Bridge: 
(Like the Intro)
8x
E|---------------|
B|---------------|
G|---------------|
D|-7777--6--5----|
A|-5555--4--3----|
E|---------------|


Solo: (Rythym Guitar)
(Keep playing it)
E|--------------|
B|--------------|
G|--------------|
D|--------------|
A|-5555--7-7----|
E|-3333--5-5----|
I believe the lead part for this solo is something between 5th and 7th fret, maybe some pentatonic. 


Chorus:
4x
E|-------------------------------------------------------------|
B|-------------------------------------------------------------|
G|-------------------------------------------------------------|
D|-10-10-101010----------------12-12-121212--------------------|
A|--8--8--8-8-8--10-10-101010--10-10-101010--12-12-121212------|
E|--8--8--8-8-8---8--8--8-8-8--10-10-101010--10-10-101010------|


Ending:
(There's one short solo)
8x               10x              1x
E|--------------|----------------|--------------|
B|--------------|----------------|--------------|
G|--------------|----------------|--------------|
D|--------------|-7777--6--5-----|--------6--5--|
A|-5555--7-7----|-5555--4--3-----|--------4--3--|
E|-3333--5-5----|----------------|--------------|
The Lead Guitar plays the second bar differently.

 ______________
|Song Structure:|
|-Intro         |
|-1st Verse     |
|-Chorus        |
|-2nd Verse     | 
|-Chorus        | 
|-3rd Verse     |
|-Bridge        | 
|-Solo          | 
|-Chorus        |
|-Ending        |
|_______________|

My 1st tab ! Hell Yeah !
If you have any corrections or questions, don't hesitate to send me an e-mail. (soad_yuri@hotmail.com)
Comments