Bjork Brant - Lazy Bones Live Chords & Tabs

 

Lazy Bones Live Chords & Tabs

Bjork Brant Chords & Tabs

Version: 1 Type: Tab 0 ratings
1 star 2 stars 3 stars 4 stars 5 stars
comments

Lazy Bones Live Tab

tabbed by Keven Williums

these are kinda 2 songs in 1... but i only have a live cd with these songs...
and he played them togehter live.
i am not sure how close this is to the studio version, though.. because i didnt
have the studio version to sound it off of.
...but anyway.. here is the song how it is played live.
I didnt bother to tab out the lead guitar.. but that guitar for the most part
just jams along with the song in E minor penatonic.

INTRO riff

e----------------------------------------------------|
b----------------------------------------------------|
g--------------------------------------14~~-14~~-14\-|
d---------------------------------------x----x----x--|
a--/7~--7~-7/9-9~-9-9/10-10~~-10-10/12-12~~-12~~-12\-|
E---0---0--0---0----0-----0----0--------0------------|
[ Tab from: http://www.guitartabs.cc/tabs/b/bjork_brant/lazy_bones_live_tab.html ]
then a little into it the guitar plays this next riff.. but then back to the intro riff...

e------------------------------------|
b------------------------------------|
g------9------9-----9-----9-----7~~~-|
d------9------9-----9-----9-----x----|
a------7------7-----7-----7-----5~~~-|
E--0-0----0-0---0-0---0-0---0-0------|

MAIN RIFF

e------------------------------------|
b------------------------------------|
g------------------------------------|
d------9-x---7/9-9-7-7~-x-7-7-5-5~~--|
a------7-x---5/7-7-5-5~-x-7-7-5-5~~--|
E--0-0--------------------5-5-3-3~~--|

VERSES

e----------------------------------------------------------|
b----------------------------------------------------------|
g----------------------------------------------------------|
d--------------------------------------7^------------------|
a--5-5-7~~-x--------5-5-7~~---x--5-5-5----5~~-x---5-5-7~---|
E----------------------------------------------------------|
Comments