Bitchbusters - You Cant Be Loved Chords & Tabs

 

You Cant Be Loved Chords & Tabs

Bitchbusters Chords & Tabs

Version: 2 Type: Tab 0 ratings
1 star 2 stars 3 stars 4 stars 5 stars
comments

You Cant Be Loved Tab

   
Bitchbusters - You Can't Be Loved
Length : 4.00
Dropped D, then Tuned Down A Half Step?

Intro - guitar 1
E|-------------------|--------------------------------|
B|-------------------|--------------------------------|
G|-------------------|--------------------------------|
D|-------------------|--------------------------------|
A|-0--0--0--12-11-10-|-0--0--0--12-11-10---0-12-11-10-|
D|-0--0--0--12-11-10-|-0--0--0--12-11-10---0-12-11-10-|

Riff 2 - both guitars
E|--------------------------------|
B|--------------------------------|
G|--------------------------------|
D|--------------------------------|
A|-1--2-2-2--1--2-2-2--1--2-2-2-3-|
D|-1--2-2-2--1--2-2-2--1--2-2-2-3-|
[ Tab from: http://www.guitartabs.cc/tabs/b/bitchbusters/you_cant_be_loved_tab_ver_2.html ]
Verse - guitar 2
E|----------------------------|--------------------|
B|----------------------------|--------------------|
G|----------------------------|--------------------|
D|----------------------------|--------------------|
A|-0--2-2--3--2--1--0--2--6-6-|-0--2-2--3--2--1--0-|
D|-0--2-2--3--2--1--0--2--6-6-|-0--2-2--3--2--1--0-|

Chorus - guitar 1+2
E|---------------------|
B|---------------------|
G|---------------------|
D|---------------------|
A|-1-1-3-3-2-2-2-2-4-4-|
D|-1-1-3-3-2-2-2-2-4-4-|

Bad Ass Solo
Sorry, I wasn't able to figure it out yet. Hope it comes soon.

Intro		2X
Riff 2  	4X
Verse		6X
Riff 2  	4X
Chorus	4X
Riff 2  	4X
Intro		1X
Verse		6X
Riff 2  	4X
Chorus	4X
Riff 2  	4X
BAD ASS SOLO
Riff 2  	4X
Chorus	8X
Riff 2  	8X
Intro		2X

I downloaded some music from this fucking cool new band from the Netherlands. I really
needed to play it, but there was no tab. So here it is, to all you other Bitchbuster fans out there.
Check out their homepage : www.bitchbusters.tk and www.cu2.nl/soberize for more information.
Comments