Bitchbusters - What The Fuck Chords & Tabs

 

What The Fuck Chords & Tabs

Bitchbusters Chords & Tabs

Version: 1 Type: Tab 0 ratings
1 star 2 stars 3 stars 4 stars 5 stars
comments

What The Fuck Tab

Bitchbusters – What The fuck?
Length : 2.52
Dropped D, then Tuned Down A Half Step?

E|-------------------------|
B|-------------------------|
G|-------------------------|
D|-------------------------|
A|-0-2-2-2--0-2-2-2--5-7-5-|
D|-0-2-2-2--0-2-2-2--5-7-5-|

E|---------------|-------------|
B|---------------|-------------|
G|---------------|-------------|
D|-------------5-|---------5-3-|
A|-x-x-x-x-x-x-3-|-x-x-x-x-3-1-|
D|-x-x-x-x-x-x---|-x-x-x-x-----|
[ Tab from: http://www.guitartabs.cc/tabs/b/bitchbusters/what_the_fuck_tab.html ]
E|---------------|---------------|
B|---------------|---------------|
G|---------------|---------------|
D|------5-5--3-3-|-3-3-------2-2-|
A|-2-2--3-3--1-1-|-1-1--2-2--0-0-|
D|-2-2-----------|------2-2------|

I downloaded some music from this fucking cool new band from the Netherlands. I really needed to play it, but there was no tab. So here it is, to all you other Bitchbuster fans out there. 
Check out their homepage : www.bitchbusters.tk and www.cu2.nl/soberize for more information.

Comments