Biohazard - Way Chords & Tabs

 

Way Chords & Tabs

Biohazard Chords & Tabs

Version: 2 Type: Tab 0 ratings
1 star 2 stars 3 stars 4 stars 5 stars
comments

Way Tab

   
this is one of the greatest songs of biohazard check it out playin it. It's quit an easy, but fuck it, i 
to play it!

	B   I   O   H   A   Z   A   R   D
		  A----W--A--Y
		  (Mata  Leao)




This is written in standard tuning.


INTRO
-----

E-----------------------------------------------------|
B-----------------------------------------------------|
G---9-9-9-9-9--12-12-10-10-12--9-9-9-9-9--10-10-10-7--|
D---9-9-9-9-9--12-12-10-10-12--9-9-9-9-9--10-10-10-7--|
A---7-7-7-7-7--10-10--8--8-10--7-7-7-7-7---8--8--8-5--|
E-----------------------------------------------------|

E--------------------------------------------------------|
B--------------------------------------------------------|
G---9-9-9-9-9--12-12-10-10-12--9-9-9-9-9-9--15-15-15-15--|
D---9-9-9-9-9--12-12-10-10-12--9-9-9-9-9-9--15-15-15-15--|
A---7-7-7-7-7--10-10--8--8-10--7-7-7-7-7-7--13-13-13-13--|
E--------------------------------------------------------|

?2

VERSE 1
-------

like before ?2

"The sun is shining, but i don't know if it'll shine again
The sky is clear now, but the clouds wait overhead.
The wind stopped blowing, but i see the trees are flowing,
The water's calm now - feel the undertow towing me -"


BREAK
-----

E----------------------------|
B----------------------------|
G---9-9--7-7--10-10--7-10-9--|
D---9-9--7-7--10-10--7-10-9--|
A---7-7--5-5---8--8--5--8-7--|
E----------------------------|

E----------------------------|
B----------------------------|
G---9-9--7-7--10-10--9-7-10--|
D---9-9--7-7--10-10--9-7-10--|
A---7-7--5-5---8--8--7-5--8--|
E----------------------------|

?2

" -down... towing me down.."
VERSE 2
-------
Like the first one.

"The sun's gone down now, behind the dark clouds looming
Birds stop singing, silence so shooting
Dark clouds open up, I hold my rain-soaked head
Thoughts are racing by, I scream and wish that I was -"

PRE-CHORUS
----------
[ Tab from: http://www.guitartabs.cc/tabs/b/biohazard/way_tab_ver_2.html ]
E----------------------------|
B----------------------------|
G---9-9--7-7--10-10--7-10-9--|
D---9-9--7-7--10-10--7-10-9--|
A---7-7--5-5---8--8--5--8-7--|
E----------------------------|

E----------------------------|
B----------------------------|
G---9-9--7-7--10-10--9-7-10--|
D---9-9--7-7--10-10--9-7-10--|
A---7-7--5-5---8--8--7-5--8--|
E----------------------------|
?2

" -dead!!! I wish that I was dead!!!"

CHORUS
------

E----------------------------|
B----------------------------|
G---9-9--7-7--10-10--7-10-9--|
D---9-9--7-7--10-10--7-10-9--|
A---7-7--5-5---8--8--5--8-7--|
E----------------------------|

E----------------------------|
B----------------------------|
G---9-9--7-7--10-10--9-7-10--|
D---9-9--7-7--10-10--9-7-10--|
A---7-7--5-5---8--8--7-5--8--|
E----------------------------|
?2

"Gotta find a way in this world to cope
Gotta find a place in this world with hope" ?2

BRIDGE
------

E----------|
B----------|
G---11...--|  listen to the track how to play it
D---11...--|
A----9...--|
E----------|

E----------|
B----------|
G----------|  listen to the track how to play it i think that it's just this one riff, but
D---4------|  you can hear changes in it, but i think that it's the bass guitar in the back.
A---4------|  But if you want, you can play +  024400 i don't care.. :)
E---2------|

That was the bridge to the real outro

OUTRO
-----

E------------------------|
B------------------------|
G--------5-5--------9-9--|
D---4-4--5-5--6--7--9-9--|
A---4-4--3-3--6--7--7-7--|
E---2-2-------4--5-------|

?8
            G--11---------------|
and the last note is  + D---9---|
            A---9---------------|

"Gotta find a way to keep my head straight
Another day I pray to let go of hate
I break myself away from my mind,
I search for inner peace I never find" ?2


Hope ya enjoy the song, I love to play it. Plz email me if you find anything wrong, but I think,
 it's fully correct.

durstorique@yahoo.com    DURSTORIQUE from hungary the home of football
Comments