Biohazard - Tales From The Hardside Chords & Tabs

 

Tales From The Hardside Chords & Tabs

Biohazard Chords & Tabs

Version: 1 Type: Tab 0 ratings
1 star 2 stars 3 stars 4 stars 5 stars
comments

Tales From The Hardside Tab

#----------------------------------PLEASE NOTE---------------------------------#
#This file is the author's own work and represents their interpretation of the #
#song. You may only use this file for private study, scholarship, or research. #
#------------------------------------------------------------------------------#
Date: Fri, 05 Jan 1996 23:16:05 -0800
From: Ryan 
Subject: Biohazard-Tales from the hardside.txt correction

                   BIOHAZARD (State of The World Address)
                         -Tales From The Hardside-
from:ryanwh@usa1.com
                      
I did this cuz,the other person who tried to do this
was totally wrong.Im not saying this is all right,but
it is alot closer.



[ Tab from: http://www.guitartabs.cc/tabs/b/biohazard/tales_from_the_hardside_tab.html ]
Riff 1
|-----------------------------------------------------------------------|
|-----------------------------------------------------------------------|
|-----------------------------------------------------------------------|
|-----------------------------------------------------------------------|
|-2--2-------6------2--2----6---3----------2--2-----6-----2--2----6---3-|
|-2--2-------6------2--2----6---3----------2--2-----6-----2--2----6---3-|
   tales from the hardside....
-------------------------------------------------------------------------
Riff 2                          
the faster part

|-----------------------------------------------------------------------|
|-----------------------------------------------------------------------|
|-----------------------------------------------------------------------|
|-----------------------------------------------------------------------|
|-2--2------5-/--6-----5------5-----5------5-----/--5------2--2---------|
|-0--0----0-3/--4--0--3--0--3--0--3---0--3--0-/--4---0--0--0------------|





most of this should b-right,but i dont know the other riff to the song.

          if anybody know's the rest of the song mail me
                           ryanwh@usa1.com
             The Biohazard Page  Http://www1.usa1.com/~ryanwh




-----------------------------13835162284975--
Comments