Biohazard - State Of The World Adress Chords & Tabs

 

State Of The World Adress Chords & Tabs

Biohazard Chords & Tabs

Version: 1 Type: Bass Tab 0 ratings
1 star 2 stars 3 stars 4 stars 5 stars
comments

State Of The World Adress Bass Tab

         Intro
G---||-----------------------------------------||-----------------------|
D---||*-----------3/4-----------3/4--3--4--6--*||-----------------------|
A---||*--5--3--5-------5--3--5----------------*||--5--------------------|
D---||-----------------------------------------||--0--------------------|

G---||-------------------------------------||---------------------------|
D---||*-----------------------------------*||---------------------------|
A---||*--------5--3--------------5--3-----*||---------------------------|
D---||---0--0--------0--3--3--3--------3---||--5--5--4------------------|

G---||-------------------------------------||---------------------------|
D---||*-----------------------------------*||---------------------------|
A---||*--------5--3--------------5--3-----*||---------------------------|
D---||---0--0--------0--3--3--3--------3---||--5--5--4------------------|

G---||-------------------------------------||---------------------------|
D---||*-----------------------------------*||---------------------------|
A---||*--------5--3--------------5--3-----*||---------------------------|
D---||---0--0--------0--3--3--3--------3---||--5--5--4------------------|

         Verse                                4x
G---||----------------------------------------||------------------------|
D---||*--------------------------------------*||------------------------|
A---||*--------------------------------------*||------------------------|
D---||---0--3--6--0--3--1--0--3--6--5--2--1---||------------------------|

[ Tab from: http://www.guitartabs.cc/tabs/b/biohazard/state_of_the_world_adress_btab.html ]
         Chorus
G---||----------------------||--------||--------------------------------|
D---||*--------------------*||--------||--------------------------------|
A---||*--------------------*||--------||--------------------------------|
D---||---5--6--3--6--8--6---||--4--1--||--------------------------------|

G---||----------------------||--------||--------------------------------|
D---||*--------------------*||--------||--------------------------------|
A---||*--------------------*||--------||--------------------------------|
D---||---5--6--3--6--8--6---||--4--1--||--------------------------------|

G---||----------------------||--------||--------------------------------|
D---||*--------------------*||--------||--------------------------------|
A---||*--------------------*||--------||--------------------------------|
D---||---5--6--3--6--8--6---||--4--1--||--------------------------------|

G---||----------------------||--------||--------------------------------|
D---||*--------------------*||--------||--------------------------------|
A---||*--------------------*||--------||--------------------------------|
D---||---5--6--3--6--8--6---||--4--1--||--------------------------------|

Then Verse x4 and Chorus

         Bridge
G---||-----------------------------------------||-----------------------|
D---||*---------------------------------------*||-----------------------|
A---||*-----------3/4-----------3/4--3--4--6--*||-----------------------|
D---||---7--5--7-------7--5--7-----------------||-----------------------|


Intro x2
Improvise to finish
Comments