Biohazard - Shades Of Grey Chords & Tabs

 

Shades Of Grey Chords & Tabs

Biohazard Chords & Tabs

Version: 1 Type: Bass Tab 0 ratings
1 star 2 stars 3 stars 4 stars 5 stars
comments

Shades Of Grey Bass Tab

Tuning: Drop D
Method: Picked


    Intro
G-----------------------------------------------------------------------|
D-----------------------------------------------------------------------|
A-----------------------------------------------------------------------|
D---3--2--3--2--3--2~~~-------------------------------------------------|


         Riff 1 (3rd/4th Times w/ Staccato)
G---||------------------------------------------------------------------|
D---||*-----------------------------------------------------------------|
A---||*-----------------------------------------------------------------|
D---||---3--2--2--2--2--3--2--2--0--2--2--3--2--2--2--2--3--2--2--5-----|


        4x       Riff 2                                        2x
G-------||--||-------------------------------------------------||-------|
D------*||--||*-----------------------------------------------*||-------|
A------*||--||*-----------------------------------------------*||-------|
D---5---||--||---0--0--0--0h1--0--0--0h3--3--0--0--0--0h1--0---||-------|


     Tail 1
G-----------------------------------------------------------------------|
D-----------------------------------------------------------------------|
A-----------------------------------------------------------------------|
D---/6--6---------------------------------------------------------------|


Now play Riff 1 x4
Then Riff 2 x2
Tail 1 x1
Riff 2 x2

    Tail 2
G----------------------------------------------------------------------|
D----------------------------------------------------------------------|
A----------------------------------------------------------------------|
D---0--1--0~~~--0--1--0~~~--6--6--6--6--0~~~--0--1--0~~~--0--6--0--9---|


    Riff 3
G-----------------------------------------------------------------------|
D-----------------------------------------------------------------------|
A---------------------------3--3--3--3--3-------------------------------|
D---0--0h1--0--0h3--0--0h1-----------------0--0h1--0--0h3--0--0h1--0----|
[ Tab from: http://www.guitartabs.cc/tabs/b/biohazard/shades_of_grey_btab.html ]
G------------|----------------------------------------------------------|
D------------|----------------------------------------------------------|
A------------|----------------------------------------------------------|
D---6--0--9--|----------------------------------------------------------|


    Guitar Solo
G-----------------------------------------------------------------------|
D-----------------------------------------------------------------------|
A-----------------------------------------------------------------------|
D---0--0--0--0--0--0--0--3--3h5p3h5p3--0--0--0--0--0--0--6--6--6--6-----|

G-----------------------------------------------------------------------|
D-----------------------------------------------------------------------|
A-----------------------------------------------------------------------|
D---6--6--0--0--0--0--0--3--3--3--3--3--0--0--0--0--0--6--6--6--6--6----|

G-----------------------------------------------------------------------|
D-----------------------------------------------------------------------|
A-----------------------------------------------------------------------|
D---0--0--0--0--0--3--3--3--3--3--0--0--0--0--0--6--6--6--6--6--0--3----|

G-----------------------------------------------------------------------|
D-----------------------------------------------------------------------|
A-----------------------------------------------------------------------|
D---3h5p3h5p3--0--0--6--0--9--------------------------------------------|


Now Play Riff 3 x2

                Bass Doodle
G------------|--7p5-----5--------------------------------------|--------|
D------------|-------7-----7--6--5--3h5p3----------------------|--------|
A---0--------|-----------------------------3--3h5-----0--------|--------|
D------0~~~--|----------------------------------0~~~-----0~~~--|--------|

G-----------------------------------------------------------------------|
D-----------------------------------------------------------------------|
A-----------------------------------------------------------------------|
D---6--6----------------------------------------------------------------|


Play Riff 2 x2
Tail 1
Riff 2 x2

    Ending
G-----------------------------------------------------------------------|
D-----------------------------------------------------------------------|
A-----------------------------------------------------------------------|
D---0--1--0~~~--1--1----------------------------------------------------|
Comments