Biohazard - Punishment Chords & Tabs

 

Punishment Chords & Tabs

Biohazard Chords & Tabs

Version: 1 Type: Bass Tab 0 ratings
1 star 2 stars 3 stars 4 stars 5 stars
comments

Punishment Bass Tab

F|-----------13-13--------|
C|--14-15-14-------15-14--| x1
G|------------------------|
D|------------------------|

intro
play this main part 2 times 
then the next on the 3rd
F|--------------------------|          ]
C|--------------------------|          ]
G|-----------3---3----------|          ]
D|--0--0--0----1---0~~~~----|          ]
                                       ] x2                                     
F|----------------------------------|  ] 
C|----------------------------------|  ]
G|-----------3---3--2/3-3/5-6/5--4--|  ] 
D|--0--0--0----1--------------------|  ]

hit the open note and hold it as evan shouts 
"i question not me" part

ok guitar plays then the drummer hits drums
and the riffs plays through once more. and 
you re join with drums and second guitars

verse
F|------------------------------------| ]
C|------------------------------------| ] 
G|--7-----8-----6------7-----8-8-8-8--| ]
D|----0-0---0-0---0-0----0-0----------| ]
                                        ] x4
F|----------------------------------|   ]
C|----------------------------------|   ]
G|--7-----8-----------2-----2--2-2--|   ]
D|----0-0---0-0-0-0-0---0-0---------|   ]

chrous
F|------------------------|
C|------------------------|
G|------------------------| x2
D|--5--6--4--5---6--6--6--|
[ Tab from: http://www.guitartabs.cc/tabs/b/biohazard/punishment_btab.html ]
verse x 4

chrous x 3

F|-------------------|
C|-------------------|
G|-------------------| x1
D|--5--4--3--2--1-1--|

F|--------------------------|          ]
C|--------------------------|          ]
G|-----------3---3----------|          ]
D|--0--0--0----1---0~~~~----|          ]
                                       ] x4                                    
F|----------------------------------|  ] 
C|----------------------------------|  ]
G|-----------3---3--2/3-3/5-6/5--4--|  ] 
D|--0--0--0----1--------------------|  ]

mid/bridge
F|-------------------------|  ]
C|-------------------------|  ]
G|--7-7---8---6---7---8-8--|  ]
D|------0---0---0---0------|  ]
                              ] x4
F|------------------------|   ]
C|------------------------|   ]
G|--7-7---8---------------|   ]
D|------0---0--0-0-0-0-0--|   ]

chrous 2
play through with ending 1 
first then ending 2
F|--------------|
C|--------------|
G|--------------|
D|--5--4--1--0--|

F|--------------| 
C|--------------|1 
G|--------------| 
D|--8--7--4--1--|

F|--------------| 
C|--------------|2 
G|--------------| 
D|--8--7--4--5--|

bridge x4

chrous2 x 1

F|------------------------------------| 
C|------------------------------------| 
G|--7-----8-----6------7-----8-8-8-8--| x1
D|----0-0---0-0---0-0----0-0----------|
Comments