Binocular - Deep Chords & Tabs

 

Deep Chords & Tabs

Binocular Chords & Tabs

Version: 9 Type: Tab 0 ratings
1 star 2 stars 3 stars 4 stars 5 stars
comments

Deep Tab

DEEP
by: Binocular

tabbed by: Heherson Juego
August 1, 2004
11:40 pm
U.P. Los Baņos, Laguna

GUITAR 1=with distortion
GUITAR 2=acoustic; CAPO on 2nd fret
***chords for guitar 2 are relative to capo
Standard tuning

Hello pala kina Noli Villa at Dale Chumacera (hehehehe....la lang)

(1) INTRO, VERSE, & CHORUS

Guitar 2

e|------2----------2----------0----------2-----|
b|--------3----------3----------1----------3---|
g|----0-----0----0-----0----0-----0----0-----0-|
d|-----------------------------------0---------|
a|-----------------------3---------------------|
e|--5----------0-------------------------------|

*Fill-in for 3rd verse after "..touching every breath"
Guitar 1 (w/ effects & thrill on 7)

e|------------------------------------7s9--7--5|
b|---------------------------------------------|
g|---------------------------------------------|
d|---------------------------------------------|
a|---------------------------------------------|
e|---------------------------------------------|


(2) PRE-CHORUS

Guitar 1

e|---------------------------------------------------------------|
b|--9------------------------------------------------------------|
g|--------9------------------------------------------------------|
d|--------------7------------------------------------------------|
a|---------------------------------------------------------------|
e|---------------------------------------------------------------|

Guitar 2

e|---------------------------------7-----7-----7-----7-----7-----|
b|--7-----7-----7-----7-----7--------7-----7-----7-----7-----7---|
g|----7-----7-----7-----7-----7--------7-----7-----7-----7-----7-|
d|------5-----5-----5-----5-----5--------------------------------|
a|---------------------------------------------------------------|
e|---------------------------------------------------------------|

Guitar 1

  -----------------------------------|
  --9--------------------------------|
  --------9--------------------------|
  --------------7--------------------|
  -----------------------------------|
  -----------------------------------|

Guitar 2

  --------------------------------7--|
  --7-----7-----7-----7-----7--------|
  ----7-----7-----7-----7-----7------|
  ------5-----5-----5-----5-----5----|
  -----------------------------------|
  -----------------------------------|


(3) AD LIB

Guitar 1

e|--------16------------------------------------------------|
b|-----------17--------12-12h14-14-14-14-12-12-12-----------|
g|--11s14-------14--14----------------------------14-14-14--|
d|----------------------------------------------------------|
a|----------------------------------------------------------|
e|----------------------------------------------------------|

Guitar 2 fill-in

e|---------------------7-----7-----7-----7-----7------------|
b|-----------------------7-----7-----7-----7-----7----------|
g|-------------------------7-----7-----7-----7-----7--------|
d|----------------------------------------------------------|
a|----------------------------------------------------------|
e|----------------------------------------------------------|

Guitar 1
[ Tab from: http://www.guitartabs.cc/tabs/b/binocular/deep_tab_ver_9.html ]
  --16------------------------------------------------------|
  -----17--------9-9h10-10-10-10-9-9-9----------------------|
  --------14--11-----------------------11-11-11-------------|
  ----------------------------------------------------------|
  ----------------------------------------------------------|
  ----------------------------------------------------------|

Guitar 2 fill-in

  ---------------------7-----7-----7-----7-----7------------|
  -----------------------7-----7-----7-----7-----7----------|
  -------------------------7-----7-----7-----7-----7--------|
  ----------------------------------------------------------|
  ----------------------------------------------------------|
  ----------------------------------------------------------|

(4)INSTRUMENTAL (no drum beat)

Guitar 2

e|------2----------2----------0----------2-----|
b|--------3----------3----------1----------3---|
g|----0-----0----0-----0----0-----0----0-----0-|
d|-----------------------------------0---------|
a|-----------------------3---------------------|
e|--5----------0-------------------------------|

Guitar 1

e|---------------------------------------------|
b|---------------------------------------------|
g|---------------------------------------------|
d|---------------------------------------------|
a|---------------------------------------------|
e|---------------------------------------------|

Guitar 2

e|------2----------2----------0----------2-----|
b|--------3----------3----------1----------3---|
g|----0-----0----0-----0----0-----0----0-----0-|
d|-----------------------------------0---------|
a|-----------------------3---------------------|
e|--5----------0-------------------------------|

Guitar 1

e|---------------------------------------------|
b|------9----------9----------7----------7-----|
g|--------9----------9----------7----------7---|   drum beat is played
d|----7-----7----7-----7----7-----7----7-----7-|        right after this part
a|---------------------------------------------|
e|---------------------------------------------|


(5)OUTRO (fade)

Guitar 2

e|------2----------2----------0----------2-----|
b|--------3----------3----------1----------3---|
g|----0-----0----0-----0----0-----0----0-----0-|
d|-----------------------------------0---------|
a|-----------------------3---------------------|
e|--5----------0-------------------------------|

Guitar 1

e|--9--------------------7-----------5---------|
b|---------------------------------------------|
g|---------------------------------------------|
d|---------------------------------------------|
a|---------------------------------------------|
e|---------------------------------------------|


(1)INTRO twice (no drum beat)

(1)So this is what you mean
   And this is how you feel
   So this is how you see
   And this is how you breathe

(2)Sometimes I know
   Sometimes I go down deep

(1)Ha, oh, ah, oh, oh
   Ha, oh, ah, oh, oh

(1)So this is what you mean
   And this is how you feel
   So this is how you see
   And this is how you breathe

(2)Sometimes I know
   Sometimes I go down deep

(1)Ha, oh, ah, oh, oh
   Ha, oh, ah, oh, oh

(1)Beneath the deep blue sea
  *Touching every breath
   All that slide of hands
   For everything you left

(2)Sometimes I know
   Sometimes I go down deep

(1)Ha, oh, ah, oh, oh
   Ha, oh, (i go down deep) ah, oh, oh
   Ha, oh, ah, oh, oh
   Ha, oh, ah, oh, oh

(3)AD lIB

(2)Sometimes I give myself for you
   Sometimes I know down deep

(4)INSTRUMENTAL (no drum beat)

(1)Ha, oh, ah, oh, oh
   Ha, oh, (i go down deep) ah, oh, oh
   Ha, oh, ah, oh, oh
   Ha, oh, (sometimes)ah, oh, oh

(5)OUTRO (fade)
Comments