Binocular - Deep Chords & Tabs

 

Deep Chords & Tabs

Binocular Chords & Tabs

Version: 3 Type: Tab 1 rating
1 star 2 stars 3 stars 4 stars 5 stars
comments

Deep Tab

   
Date Created: February 4, 2002
Tablature of the song Deep by Binocular

Use Capo on 2nd Fret
0 is 2nd fret

Main Pattern (Intro, Verse and Chorus)

     A                  F#                D                 E
e------------2-------------------2-----------------0-----------------2-------
B----------3---3---------------3---3-------------3---3-------------3---3-----
G--------0-------0-----------0-------0---------0-------0---------2-------2---
D-----------------------------------------------------------0----------------
A------------------------------------------3---------------------------------
E----3-------------------0---------------------------------------------------



Pre-Chorus (It is played on a higher noteson a Second Guitar)
[ Tab from: http://www.guitartabs.cc/tabs/b/binocular/deep_tab_ver_3.html ]
Sometimes......
    F#m                    D                          D
e----0---0---0---0---0-----0---0---0---0---0------||--0----------------------
B----0----0---0---0---0----1----1---1---1---1----O||--1----------------------
G----0-----0---0---0---0---0-----0---0---0---0----||--0----------------------
D----2---------------------2----------------------||--2----------------------
A----2---------------------3---------------------O||--3----------------------
E----0---------------------0----------------------||--0----------------------

Chorus: (Just play the Chords)
  
Oh......

A              F#m/A             D/A             E
EADGBe          EADGBe           EADGBe          EADGBe
------II fret   ------II fret    ------II fret   ------II fret
320033          022033           032033          000323




								Transcribed By:
								Reynaldo Co
								
								Questions/Comments @
								Reynaldo_8@edsamail.com.ph






Comments