Binocular - Deep Chords & Tabs

 

Deep Chords & Tabs

Binocular Chords & Tabs

Version: 1 Type: Chords 1 rating
1 star 2 stars 3 stars 4 stars 5 stars
comments

Deep Chords

   
Deep
Artist: Binocular
Transcribed by: Walter Michael F. De la Cruz- "The Twisted Illusion"


Note: 
I took the effort to make a more complete one.  This is how I
interpreted the song, of course. I did what I can so I guess it's up to you
to figure out the rest. I really a hard time tabbing this song but i did it..
im sure that this is 100% correct..



GUide Chords

 
    G5        Em5           C9               D5

E-----2------------2---------------0-------------2--------------|
B-------3------------3----------------3------------3------------|
G---0-----0------0------0------0---------0-----0------0---------|
D--------------------------------------------0------------------|
A---------------------------3-----------------------------------|
E--3-----------0------------------------------------------------|



Capo on 2nd fret


G5-Em5-C9-D5
So this is what you mean
and this is how u feel
so this is how u c
and this is how u breathe


Refrain:

[ Tab from: http://www.guitartabs.cc/tabs/b/binocular/deep_crd.html ]
      B/F#      CM7    B/F#        CM7
E-----2-------2--3------2--------2--3------|
B--------3----3--5---------3-----3--5------|
G----------0--0--4------------0--0--4------|
D-------------0--5---------------0--5------|
A--2----------2--3----2----------2--3------|
E------------------------------------------|


sometimes i know
sometimes i go down deep



G5-Em5-C9-D5
haahaaaa ooohhh  aaaaooo


G5-Em5-C9-D5
so this is what u mean
and this how u feel
so this is how u c
and this is how u breathe


B/F#       CM7
sometimes i know
sometimes i go down deep



G5-Em5-C9-D5
haahaaaa ooohhh  aaaaooo


G5-Em5-C9-D5
beneath the deep blue sea
and touching every breathe
all the slide of hands
for everything u left


B/F#        CM7
sometimes i know
sometimes i go down deep


G5-Em5-C9-D5
haahaaaa ooohhh  aaaaooo


G5-Em5-C9-D5
sometimes i gave myself away
sometimes i know down deep


G5-Em5-C9-D5
haahaaaa ooohhh  aaaaooo



For any views, comments, revisions, and suggestions please send me an E-mail @
Walterfdelacruz@yahoo.com. Your opinions are greatly welcome! Enjoy the guitar lesson!
By thw way u can add me in invite Me in friendster or myspace...u r Welcome








Comments