Billy Talent - This Suffering Chords & Tabs

 

This Suffering Chords & Tabs

Billy Talent Chords & Tabs

Version: 3 Type: Tab

This Suffering Tab

-------------------------------------------------------------------------------
                           This Suffering
-------------------------------------------------------------------------------

Tabbed by: Brendan
Email: x-parasite@e-dimensionz.com

I'm pretty sure this is 100%, I think the bridge might be off a little though. Well, 
ya guys go, my 2nd attempt at this song. It's in drop D tuning. Find any mistakes? Email me!

Intro 1
Distorted
e|-----------------------------8-------------------3----------------------|
B|------10----------------8----------------3---5--------------------------|
G|-10--------10------9-----------------3----------------------------------|
D|----0----0-----------10---10--------------------------3-2-0---0---------|
A|------------------------------------------------------------3-0---------|
D|---------------------------------------5---5---5--------------0---------|

Intro 2/Outro
Distorted
e|------------------------------8-----------------------------------------|
B|------10-----------------8-----------------5---6---8--------------------|
G|-10--------10--10---9------------------7--------------------------------|
D|----0----0-----0------10----10-----------5---5---5------3-2-0---0-------|
A|----0----0-----0------10----10-----------5---5---5------------3-0-------|
D|----0----0-----0------10----10-----------5---5---5--------------0-------|

Verse
Distorted
e|-5------3------------------3--------------------------------------------|
B|-6------5----------3---5------------------------------------------------|
G|-7------5------3--------------------------------------------------------|
D|-7------5--------5---5---5---5--3-2-0---0-------------------------------|
A|-5------3--------5---5---5---5--------3-0-------------------------------|
D|-----------------5---5---5---5----------0-------------------------------|

Pre-chorus
Clean
e|------------------------------------------------------------------------|
B|------------------------------------------------------------------------|
G|-7---7---7---7---7---7---9---10---7---7---7---7---7---7---9---10--------|
D|---8---8---8---8---8---8---8----8---7---7---7---7---7---7---7----7------|
A|------------------------------------------------------------------------|
D|------------------------------------------------------------------------|

e|-6---6-----------6---6-----------5---5---5---5---3---3---3---3----------|
B|---------5---6-----------5---6-----6---6---6---6---5---5---5---5--------|
G|---0---0---0---0---0---0---0---0----------------------------------------|
D|------------------------------------------------------------------------|
A|------------------------------------------------------------------------|
D|------------------------------------------------------------------------|
[ Tab from: http://www.guitartabs.cc/tabs/b/billy_talent/this_suffering_tab_ver_3.html ]
Chorus 1
Distorted
e|------------------------------------------------------------------------|
B|-3-3-3-3-3-3-3-3-3-3-3-3-3-3-3-6-6-6-6-6-6-6-6-6-6-6-6-6-6-6-6----------|
G|-3-3-3-3-3-3-3-3-3-3-3-3-3-3-3-7-7-7-7-7-7-7-7-7-7-7-7-7-7-7-7----------|
D|-3-3-3-3-3-3-3-3-3-3-3-3-3-3-3-7-7-7-7-7-7-7-7-7-7-7-7-7-7-7-7----------|
A|-1-1-1-1-1-1-1-1-1-1-1-1-1-1-1-5-5-5-5-5-5-5-5-5-5-5-5-5-5-5-5----------|
D|------------------------------------------------------------------------|

e|------------------------------------------------------------------------|
B|-------------------------------------------------5----------------------|
G|-------------------------------------------------5----------------------|
D|-5-5-5-5-5-5-5-5-5-5-5-5-5-5-5-5-3-3-3-3-3-3-3-3-5----------------------|
A|-5-5-5-5-5-5-5-5-5-5-5-5-5-5-5-5-3-3-3-3-3-3-3-3-3----------------------|
D|-5-5-5-5-5-5-5-5-5-5-5-5-5-5-5-5-3-3-3-3-3-3-3-3------------------------|


Chorus 2
Distorted
e|------------------------------------------------------------------------|
B|-3-3-3-3-3-3-3-3-3-3-3-3-3-3-3-6-6-6-6-6-6-6-6-6-6-6-6-6-6-6-6----------|
G|-3-3-3-3-3-3-3-3-3-3-3-3-3-3-3-7-7-7-7-7-7-7-7-7-7-7-7-7-7-7-7----------|
D|-3-3-3-3-3-3-3-3-3-3-3-3-3-3-3-7-7-7-7-7-7-7-7-7-7-7-7-7-7-7-7----------|
A|-1-1-1-1-1-1-1-1-1-1-1-1-1-1-1-5-5-5-5-5-5-5-5-5-5-5-5-5-5-5-5----------|
D|------------------------------------------------------------------------|

e|------------------------------------------------------------------------|
B|-------------------------------------------------5-5-5-5-5-5-5-5--------|
G|-------------------------------------------------5-5-5-5-5-5-5-5--------|
D|-5-5-5-5-5-5-5-5-5-5-5-5-5-5-5-5-3-3-3-3-3-3-3-3-5-5-5-5-5-5-5-5--------|
A|-5-5-8-8-7-7-8-8-5-5-8-8-7-7-8-8-3-3-3-3-3-3-3-3-3-3-3-3-3-3-3-3--------|
D|-5-5-5-5-5-5-5-5-5-5-5-5-5-5-5-5-3-3-3-3-3-3-3-3------------------------|


Bridge
Distorted
e|-------10-10---10--10-12-12---12--10-10----------8-8---8--10-10--10-8-8-|
B|-------10-10---10--10-10-10---10--10-10----------8-8---8--8--8---8--8-8-|
G|-------10-10---10--10-10-10---10--10-10----------9-9---9--9--9---9--9-9-|
D|-0-0-0----------------------------------10-10-10------------------------|
A|-0-0-0----------------------------------10-10-10------------------------|
D|-0-0-0----------------------------------10-10-10------------------------|

e|-----------8--8----8---10-10---10--8--8--5-5-5-5-5-5-5-5-5-5-5-5-5-5-5--|
B|-----------10-10---10--10-10---10--10-10-6-6-6-6-6-6-6-6-6-6-6-6-6-6-6--|
G|-----------10-10---10--10-10---10--10-10-5-5-5-5-5-5-5-5-5-5-5-5-5-5-5--|
D|-10-10--10-------------------------------3-3-3-3-3-3-3-3-3-3-3-3-3-3-3--|
A|-8--8---8--------------------------------3-3-3-3-3-3-3-3-3-3-3-3-3-3-3--|
D|-8--8---8--------------------------------3-3-3-3-3-3-3-3-3-3-3-3-3-3-3--|

Order:
Intro 1----[x2]
Intro 2----[x2]
Verse------[x4]
Pre-chorus-[x1]
Chorus 1---[x1]
Intro 2----[x1]
Verse------[x4]
Pre-chorus-[x1]
Chorus 2---[x2]
Bridge-----[x3]
Pre-chorus-[x2]
Chorus-----[x6]
Outro------[x1]