Billy Talent - This Suffering Chords & Tabs

 

This Suffering Chords & Tabs

Billy Talent Chords & Tabs

Version: 1 Type: Tab

This Suffering Tab

Billy Talent - This Suffering

Tabbed by Shayne
email: bakuryu399@gmail.com

intro

 grt.1
|---5--------8---------------------|
|-6---6--5-8-------5-8-------------|
|----------------7-----------------|
|--------------8-------3-2----0----|
|-------------------------5-3-0----|
|-----------------------------0----|
|gtr.2
|----------------------------------|
|----------------------------------|
|-(----palm muted-----)------------|
|----------------------3-2----0----|
|-5---5--3---3------------5-3-0----|
|--------------5----5-5-------0----|

 gtr.1
|---5--------8----------------------|
|-6---6--5-8-------5-8--------------|
|----------------7------------------|
|--------------8-------3-2-----0----|
|--------------------------5-3-0----|
|------------------------------0----|
|gtr.2
|-------------------------------------|
|-------------------------------------|
|-7--777/-5--555/---------------------|
|-7--777/-5--555/--5-5-5--3-2----0----|
|-5--555/-3--333/--5-5-5-----5-3-0----|
|------------------5-5-5---------0----|

verse
 gtr.1
|-5----------3----------------------------|
|-6----------5-----------5-8--------------|
|-7----------5---------7------------------|
|--------------------8-------3-2-----0----|
|--------------------------------5-3-0----|
|------------------------------------0----|
|gtr.2                                       x2
|----------------------------------------|
|----------------------------------------|
|----------------------------------------|
|--------------------5-5-5---3-2----0----|
|--------------------5-5-5------5-3-0----|
|--------------------5-5-5----------0----|

 gtr.1
|-55-5-5-----33-3-3----------------------|
|-66-6-6-----55-5-5------5-8-------------|
|-77-7-7-----55-5-5----7-----------------|
|--------------------8--------3-2-----0--|
|---------------------------------5-3-0--|
|-------------------------------------0--|
|gtr.2                                       x2
|---------------------------------------|
|---------------------------------------|
|-7--777/----5--555/--------------------|
|-7--777/----5--555/--5-5-5---3-2-----0-|
|-5--555/----3--333/--5-5-5-------5-3-0-|
|---------------------5-5-5-----------0-|
[ Tab from: http://www.guitartabs.cc/tabs/b/billy_talent/this_suffering_tab.html ]
pre chorus
|--------------------------------------|
|--------------------------------------|
|-7-7-7-7-7-7-9-10--7-7-7-7-7-7-9-10---|
|--8-8-8-8-8-8-8--8--7-7-7-7-7-7-7--7--|
|--------------------------------------|
|--------------------------------------|

|--------------------------------------|
|-11-11-9--10---11-11--9--10-----------|
|---7--7-12--12---7--12--12------------|
|--------------------------------------|
|--------------------------------------|
|--------------------------------------|

|--------------------------------------|
|-10--10--10--10-----------------------|
|---10--10--10--10-9--9--9--9----------|
|-------------------10-10-10-10--------|
|--------------------------------------|
|--------------------------------------|

chorus
|----------------------------------------------------------------------|
|----------------------------------------------------------------------|
|-------------------------------------------------------------55555555-|
|-8888888888888888-7777777777777777-5555555555555555-33333333-55555555-|
|-8888888888888888-5555555555555555-5555778855557788-33333333-33333333-|
|-8888888888888888-0000000000000000-5555555555555555-33333333----------|

solo/breakdown
 gtr.1
|-------------------------------------------------|
|----141414-161616-141414----121212-141414-121212-|
|-------------------------------------------------|
|----121212-141414-121212----101010-121212-101010-|
|-------------------------------------------------|
|-------------------------------------------------|
|gtr.2
|-------------------------------------------------|
|-------------------------------------------------|
|-777---------------------555---------------------|
|-777---------------------555---------------------|
|-555---------------------333---------------------|
|-------------------------------------------------|

 gtr.1
|----------------------------------------------------|
|----121212-141414-121212----------------------------|
|--------------------------10-10-10-1010101010101010-|
|----101010-121212-101010--7--7--7--7-7-7-7-7-7-7-7--|
|----------------------------------------------------|
|----------------------------------------------------|
|gtr.2
|-------------------------------------------------------|
|-------------------------------------------------------|
|-333---------------------------------------------------|
|-333----------------------7--7--7--7-7-7-7-7-7-7-7-7---|
|-111----------------------7--7--7--7-7-7-7-7-7-7-7-7---|
|--------------------------7--7--7--7-7-7-7-7-7-7-7-7---|