Billy Talent - This Is How It Goes Chords & Tabs

 

This Is How It Goes Chords & Tabs

Billy Talent Chords & Tabs

Version: 7 Type: Tab 0 ratings
1 star 2 stars 3 stars 4 stars 5 stars
comments

This Is How It Goes Tab

   
the first song on the billy talent cd-the guitarist is insane in this one.
like all billy talent songs, this is a dropped d tuning.

"This is how it goes"
Billy Talent
Dropped D tuning (e B G D A D)

Intro & Verse
e------------------------------------------------------
B------------------------------------------------------
G------------------------------------------------------
D---------------------------------------2-2-2-2-3-3-3-3 x2
A-5-5-5-5-5-5-5-5(x2)---4-4-4-4-4-4-4-4----------------
D------------------------------------------------------

Prechorus
e----|
B----|
G-2--|
D-2-3|
A-0-3|
D---3|

Chorus
e--------------------10-10---------5-5-----------------
B--------6-6---------10-10---------5-5-----------------
G--------7-7---------10-10---------5-5-----------------
D-0-0--0-7-7--8-8--8--------3-3--3---------------------
A-0-0--0-5-5--8-8--8--------3-3--3----------------3----
D-0-0--0------8-8--8--------3-3--3------7-7-5-6-7---5-3

e--------------------10-10---------5-5----------------
B--------6-6---------10-10---------5-5----------------
G--------7-7---------10-10---------5-5----------------
D-0-0--0-7-7--8-8--8--------3-3--3--------------------
A-0-0--0-5-5--8-8--8--------3-3--3---------------7-6-5
D-0-0--0------8-8--8--------3-3--3-----7-7-5-6-7------
[ Tab from: http://www.guitartabs.cc/tabs/b/billy_talent/this_is_how_it_goes_tab_ver_7.html ]
Introlude-play each chord 5 times(You need to play upstrokes and downstrokes)
e-5---------5---------5---------3----
B-6---------6---------6---------1----
G-7---------5---------5---------2----
D-7-(x5)----9-(x5)----8-(x5)----0-(x5)
A-5---------5---------5--------------
D------------------------------------

the structure is:
intro/verse
prechorus & chorus
intro/verse
prechorus & chorus x2
Introlude x4 (i think)
chorus

here is the lyrics:
verse 1
Everybody/is tired/and poor and sick of tryin!
If you see me/on a corner/will you stop or will you splash me?
Take a look at/what we've become/nothin more than silhouettes of
A pretty family/on a postcard/picture perfect i dont want it!

Chorus:
So I hold my breath till my heart/explodes!
cause this is how it is and this is how it/goes!
you can steal my body but you cant sell my soul
Cause/this is how it is and this is how it goes!

verse 2
Shitty weather/bad timing/lucky penny glued to the ground
dirty look from/a total stranger/hope you get lost and you're not found!
Take a look at/what we've become/nothin more than silhouettes of
A pretty family/on a postcard/picture perfect i dont want it!

Chorus

this is/how it/it goes!
this is/how it/it goes!

Introlude
So unscrew my head/and rinse it out!
polish my thoughts/turn into doubts!

Chorus

Have fun with this song and if you have any problems DEAL WITH IT
(or email me @ phrank@nirvanaweb.com
Comments