Billy Talent - The Ex Chords & Tabs

 

The Ex Chords & Tabs

Billy Talent Chords & Tabs

Version: 3 Type: Tab 0 ratings
1 star 2 stars 3 stars 4 stars 5 stars
comments

The Ex Tab

   
---------------------------------------------------------------------------
			     The Ex - Billy Talent
---------------------------------------------------------------------------
Tabbed by: Dylan Devoe
Email: dylandevoe@hotmail.com

Tuning: Drop D (DADGBE)

The other versions are good but, they don't have the whole song!
Here it is...

Intro: (x2)
e|-----------------------------------|
B|-----------------------------------|
G|-----------------------------------|
D|-7---7---6---4-----7---7---6---4---|
A|-----------------------------------|
D|---4---4---4---4-----0---0---0---0-|

e|-----------------------------------------------------|
B|-----------------------------------------------------|
G|-----------------------------------------------------|
D|-2-2-2-2-2-4-2-0-------------------------------------|
A|-0-0-0-0-0-0-0-0---2-2-2-2-2-4-2-0---2-2-2-2-2-4-2-0-|
D|-------------------0-0-0-0-0-0-0-0---2-2-2-2-2-2-2-2-|

e|-4-4-4-4-4-4-4-4-|
B|-6-6-6-6-6-6-6-6-|
G|-4-4-4-4-4-4-4-4-|
D|-6-6-6-6-6-6-6-6-|
A|-4-4-4-4-4-4-4-4-|
D|-----------------|

Verse: (x2)
e|---------------------------------------------------------------------|
B|---------------------------------------------------------------------|
G|---------------------------------------------------------------------|
D|-4-4-4-4-4-4-4-4-0-0-0-0-0-0-0-0---2-2-2-2-2-4-2-0-------------------|
A|-4-4-4-4-4-4-4-4-0-0-0-0-0-0-0-0---0-0-0-0-0-0-0-0---2-2-2-2-2-4-2-0-|
D|-4-4-4-4-4-4-4-4-0-0-0-0-0-0-0-0---------------------0-0-0-0-0-0-0-0-|
(******************************Palm*Muted******************************)

e|-----------------------------------------------------|
B|-----------------------------------------------------|
G|-----------------------------------------------------|
D|-2-2-2-2-2-4-2-0-------------------------------------|
A|-0-0-0-0-0-0-0-0---2-2-2-2-2-4-2-0---2-2-2-2-2-4-2-0-|
D|-------------------0-0-0-0-0-0-0-0---2-2-2-2-2-2-2-2-|
(*********Palm*Muted**********)

e|-4-4-4-4-4-4-4-4-|
B|-6-6-6-6-6-6-6-6-|
G|-4-4-4-4-4-4-4-4-|
D|-6-6-6-6-6-6-6-6-|
A|-4-4-4-4-4-4-4-4-|
D|-----------------|

Pre-Chorus:
e|-------------------------------------------------4-4-4-4-4-4-4-4-|
B|-------------------------------------------------6-6-6-6-6-6-6-6-|
G|-------------------------------------------------4-4-4-4-4-4-4-4-|
D|-4-4-4-4-4-4-4-4-6-6-6-6-6-6-6-6-7-7-7-7-7-7-7-7-6-6-6-6-6-6-6-6-|
A|-4-4-4-4-4-4-4-4-6-6-6-6-6-6-6-6-7-7-7-7-7-7-7-7-4-4-4-4-4-4-4-4-|
D|-4-4-4-4-4-4-4-4-6-6-6-6-6-6-6-6-7-7-7-7-7-7-7-7-----------------|
(****************Palm*Muted*****************)

Chorus:
e|-------------------------------------------------|
B|-------------------------------------------------|
G|-6-6---------7-7---------7-7---------------------|
D|-6-6---4-4---7-7---4-4---7-7---4-4---2-2-/-4-0-0-|
A|-4-4---4-4---5-5---4-4---5-5---4-4---2-2-/-4-0-0-|
D|-------4-4---------4-4---------4-4---2-2-/-4-0-0-|
[ Tab from: http://www.guitartabs.cc/tabs/b/billy_talent/the_ex_tab_ver_3.html ]
e|---------------------------------------------------------------|
B|---------------------------------------------------------------|
G|-6-6---------7-7---------7-7-----------------------------------|
D|-6-6---4-4---7-7---4-4---7-7---4-4---2-2-/-4-0-0---2-2-/-4-0-0-|
A|-4-4---4-4---5-5---4-4---5-5---4-4---2-2-/-4-0-0---2-2-/-4-0-0-|
D|-------4-4---------4-4---------4-4---2-2-/-4-0-0---2-2-/-4-0-0-|

e|-4-4-4-4-4-4-4-4-|
B|-6-6-6-6-6-6-6-6-|
G|-4-4-4-4-4-4-4-4-|
D|-6-6-6-6-6-6-6-6-|
A|-4-4-4-4-4-4-4-4-|
D|-----------------|

Verse 2: (x2)
e|---------------------------------------------------------------------|
B|---------------------------------------------------------------------|
G|---------------------------------------------------------------------|
D|-4-4-4-4-4-4-4-4-0-0-0-0-0-0-0-0---2-2-2-2-2-4-2-0-------------------|
A|-4-4-4-4-4-4-4-4-0-0-0-0-0-0-0-0---0-0-0-0-0-0-0-0---2-2-2-2-2-4-2-0-|
D|-4-4-4-4-4-4-4-4-0-0-0-0-0-0-0-0---------------------0-0-0-0-0-0-0-0-|
(******************************Palm*Muted******************************)

e|-----------------------------------------------------|
B|-----------------------------------------------------|
G|-----------------------------------------------------|
D|-2-2-2-2-2-4-2-0-------------------------------------|
A|-0-0-0-0-0-0-0-0---2-2-2-2-2-4-2-0---2-2-2-2-2-4-2-0-|
D|-------------------0-0-0-0-0-0-0-0---2-2-2-2-2-2-2-2-|
(*********Palm*Muted**********)

e|-4-4-4-4-4-4-4-4-|
B|-6-6-6-6-6-6-6-6-|
G|-4-4-4-4-4-4-4-4-|
D|-6-6-6-6-6-6-6-6-|
A|-4-4-4-4-4-4-4-4-|
D|-----------------|

Pre-Chorus:
e|-------------------------------------------------4-4-4-4-4-4-4-4-|
B|-------------------------------------------------6-6-6-6-6-6-6-6-|
G|-------------------------------------------------4-4-4-4-4-4-4-4-|
D|-4-4-4-4-4-4-4-4-6-6-6-6-6-6-6-6-7-7-7-7-7-7-7-7-6-6-6-6-6-6-6-6-|
A|-4-4-4-4-4-4-4-4-6-6-6-6-6-6-6-6-7-7-7-7-7-7-7-7-4-4-4-4-4-4-4-4-|
D|-4-4-4-4-4-4-4-4-6-6-6-6-6-6-6-6-7-7-7-7-7-7-7-7-----------------|
(****************Palm*Muted*****************)

Chorus 2: (x3)
e|-------------------------------------------------|
B|-------------------------------------------------|
G|-6-6---------7-7---------7-7---------------------|
D|-6-6---4-4---7-7---4-4---7-7---4-4---2-2-/-4-0-0-|
A|-4-4---4-4---5-5---4-4---5-5---4-4---2-2-/-4-0-0-|
D|-------4-4---------4-4---------4-4---2-2-/-4-0-0-|

I'm not sure of what the Bridge is yet but, I'll add it when I figure it out

Pre-Chorus:
e|-------------------------------------------------4-4-4-4-4-4-4-4-|
B|-------------------------------------------------6-6-6-6-6-6-6-6-|
G|-------------------------------------------------4-4-4-4-4-4-4-4-|
D|-4-4-4-4-4-4-4-4-6-6-6-6-6-6-6-6-7-7-7-7-7-7-7-7-6-6-6-6-6-6-6-6-|
A|-4-4-4-4-4-4-4-4-6-6-6-6-6-6-6-6-7-7-7-7-7-7-7-7-4-4-4-4-4-4-4-4-|
D|-4-4-4-4-4-4-4-4-6-6-6-6-6-6-6-6-7-7-7-7-7-7-7-7-----------------|
(****************Palm*Muted*****************)

Chorus 3: (x4)
e|-------------------------------------------------|
B|-------------------------------------------------|
G|-6-6---------7-7---------7-7---------------------|
D|-6-6---4-4---7-7---4-4---7-7---4-4---2-2-/-4-0-0-|
A|-4-4---4-4---5-5---4-4---5-5---4-4---2-2-/-4-0-0-|
D|-------4-4---------4-4---------4-4---2-2-/-4-0-0-|

End Chord:
e|-5-|
B|-7-|
G|-5-|
D|-7-|
A|-5-|
D|---|

Thank-You! Get Your Ass Of The Computer and Go Play!!
"Dylan"
Comments