Billy Talent - River Below Chords & Tabs

 

River Below Chords & Tabs

Billy Talent Chords & Tabs

Version: 8 Type: Tab 0 ratings
1 star 2 stars 3 stars 4 stars 5 stars
comments

River Below Tab

Tuning: Drop D

 
Intro (play twice)
e|---------------------------------------------------------------|
B|---------------------------------------------------------------|
G|-----------7----------8-7-5------------------------------------|
D|-------8-------8------------8-7-5------------------------------|
A|----------------------------------8-6--------------------------|
d|--5-5----5---5---5---------------------------------------------|

twice

verse (play twice)
e|-----------------3~---------------3~------------------------------------|
B|-----3-----------4~----3----------4~-----3------------------------------|
G|---3-x-3--2-3-5------3-x-3--2-3-5------3-x-3--2-0---2--3-3-3-3--2-------|
D|---5-5-5-------------5-5-5-------------5-5-5------3----3-3-3-3--2-x8----|
A|-------------------------------------------------------1-1-1-1--0-------|
d|------------------------------------------------------------------------|


pre-chorus
e|-----------------------------------------------|
B|------4--------8--------6--------7-------------|
G|------5--------7--------7--------6-------------|
D|----5--------8-----------------7---------------|
A|--3-----3--6-----6----8------5-----5-----------|
d|--------------------8-----8--------------------|

e|-----------------------------------------------|
B|------4--------8--------6----7-----------------|
G|------5--------7--------7----7-----------------|
D|----5--------8---------------7-----------------|
A|--3-----3--6-----6----8------5-----------------|
d|--------------------8-----8--------------------|

chorus (twice)
e|---------------------------------------------------------------|
B|---------------------------------------------------------------|
G|----------------------------333333-----------------------------|
D|-5555555--0000000--1111111--333333-----------------------------|
A|-5555555--0000000--1111111--111111----------------------------|
d|-5555555--0000000--1111111-------------------------------------|
[ Tab from: http://www.guitartabs.cc/tabs/b/billy_talent/river_below_tab_ver_8.html ]
e|---------------------------------------------------------------|
B|--4-4-4-4------------------------------------------------------|
G|--5-5-5-5------------------------------------------------------|
D|--5-5-5-5--5-5-5-5--0-0-0-0--1-1-1-1---------------------------|
A|--3-3-3-3--5-5-5-5--0-0-0-0--1-1-1-1---------------------------|
d|-----------5-5-5-5--0-0-0-0--1-1-1-1---------------------------|


Intro again (twice)
e|---------------------------------------------------------------|
B|---------------------------------------------------------------|
G|-----------7----------8-7-5------------------------------------|
D|-------8-------8------------8-7-5------------------------------|
A|----------------------------------8-6--------------------------|
d|--5-5----5---5---5---------------------------------------------|


verse

pre-chorus

chorus (twice)

then
e|---------------------------------------------------------------|
B|--4-4-4-4------------------------------------------------------|
G|--5-5-5-5------------------------------------------------------|
D|--5-5-5-5--5-5-5-5--0-0-0-0--1-1-1-1---------------------------|
A|--3-3-3-3--5-5-5-5--0-0-0-0--1-1-1-1---------------------------|
E|-----------5-5-5-5--0-0-0-0--1-1-1-1---------------------------|


bridge
e|----------------------------------------------------------------|
B|----------------------------------------------------------------|
G|-----------7----------------------------------------------------|
D|-------8-------8------0~----------------------------------------|
A|----------------------0~----------------------------------------|
d|--5-5----5---5---5----0~----------------------------------------|

repeat 3 times
then
e|---------------------------------------------------------------|
B|----------------------7----------------------------------------|
G|-----------7----------7--x8------------------------------------|
D|-------8-------8------7----------------------------------------|
A|----------------------5----------------------------------------|
d|--5-5----5---5---5---------------------------------------------|


chorus (twice)
then play the intro as the outro
Comments