Billy Talent - River Below Chords & Tabs

 

River Below Chords & Tabs

Billy Talent Chords & Tabs

Version: 3 Type: Bass Tab 0 ratings
1 star 2 stars 3 stars 4 stars 5 stars
comments

River Below Bass Tab

----------------------------------------------------------------------------
			     River Below - Billy Talent
----------------------------------------------------------------------------

Tabbed By : Jay 

Tuning: EADG

intro:

G|-----------------------------------|
D|-----------------------------------|
A|---------55555555---------55555555-|
E|-3-3-3-3----------3-3-3-3----------|

verse:
[ Tab from: http://www.guitartabs.cc/tabs/b/billy_talent/river_below_btab_ver_3.html ]
G|--------------------------------------------------------------|
D|--------------------------------------------------------------| x2
A|--------555-3-------555-3-------------11111111-55555555-------|
E|--3-3-3-------3-3-3-------3-3-3-1-1-1-------------------------|

pre-chorus:

G|-----------------------------------------------------------------|
D|-----------------------------------------------------------------|
A|-3---3-6--5-3-1----1-5--3-1-3----3-6--5-3-1----1-55555555--------|
E|---3-------------1-------------3-------------1-------------------|

chorus:

G|-----------------------------------------------------------------------|
D|-----------------------------------------------------------------------|
A|---------55555555-66666666-11111111-3-3-3-3---------5-5-5-5-6-6-6-6----|
E|-3333333------------------------------------3-3-3-3--------------------|
Comments